Oops, an error
Loading. Please wait.

Ne Duart Tua Do Te Vdes tab

387 views 1 this week
no commentswrite comment
1 2 3 4 5
2 more votes to show rating
add to favorites
×
Save as Personal and add changes to this tab that will be seen only by you. Learn more ›
×
You can save this tab as Personal to edit and correct it or add notes. All changes will be seen only by you. Learn more »
launch autoscroll
font size
0
reset
how to read this tab
guitar tuner
edit
Autoscroll
slow
fast
+/-
esc
set tempo
stop
Author
Në duart tua do të vdes – Minatori
By Danny

Intro: Em D

Em – 779987
D  - 557775
C  - 81010988

Gtr: 1 acoustic

              Em                              D
E---7--x-7-7-7----------5--x-5-5-5----------------|
B---8--x-8-8-8----------7--x-7-7-7----------------|
G---9--x-9-9-9----------7--x-7-7-7----------------|
D---9--x-9-9-9----------7--x-7-7-7----------------|
A---7-------------------5-------------------------|
E---7-------------------5-------------------------|


Solo
Gtr: 2 electric

E----------------------------------------------------------|
B----------------------------------------------------------|
G--------------------------7-------------------------------|
D—9h10p9h10p9-7----7-9-10----9-----------------------------|
A----------------------------------------------------------|
E----------------------------------------------------------|

E----------------------------------------------------------|
B----------------------------------------------------------|
G----------------------------------------------------------|
D—9h10p9h10p9-7----7-9-------------------------------------|
A-------------------------------10-9-7---------------------|
E----------------------------------------------------------|

Gjatë këngës kitara elektrike kyçet me këtë ritëm:

       E5                            D5
E----------------------------------------------------------|
B----------------------------------------------------------|
G----------------------------------------------------------|
D--9---9-9--------------------------7---7-7----------------|
A--7---7-7--------------------------5---5-5----------------|
E----------------------------------------------------------|

Gjatë strofës vetëm:  Em D

            pastaj

C           D                  Em     D
Si udhëtim i gjatë në natë
C                D                  Em     D
Ti më jep shpresë më…
C           D        Em      C
Edhe njè jetë, unë do të pres
Em    C        D       Em
Në duart tua do të vdes


Këtu kyçet kitara elektrike me efekt (distortion)
ndërsa kitara akustike vazhdon ritmin: Em D
Gtr: 2 electric

       E5                            D5
E----------------------------------------------------------|
B----------------------------------------------------------|
G----------------------------------------------------------|
D--9---9-9--------------------------7---7-7----------------|
A--7---7-7--------------------------5---5-5----------------|
E----------------------------------------------------------|

Nuk ka rëndësi pse ti vjen, Nuk ka rëndësi pse ti shkon…………..


 h – hummer on
 p – pull of


            
            
Suggest correction
Creating personal tab
Creating personal tab
You can edit any tab online and save it as your Personal.

You can edit, replace or remove any tab part or add personal notes – all changes will be seen only by you.

Personal tabs can be accessed anytime from any device, even offline.
Learn more »
Give kudos to tab author, rate the tab!
1 2 3 4 5
comments
print report bad tab
guest
You may want to rate the tab now too:
select rating
Wanna post a correction for this tab? Suggest correction