Oops, an error
Loading. Please wait.

Udha E Mbare tab

531 views 1 this week
no commentswrite comment
1 2 3 4 5
2 more votes to show rating
add to favorites
×
Save as Personal and add changes to this tab that will be seen only by you. Learn more ›
×
You can save this tab as Personal to edit and correct it or add notes. All changes will be seen only by you. Learn more »
launch autoscroll
font size
0
reset
how to read this tab
guitar tuner
edit
Autoscroll
slow
fast
+/-
esc
set tempo
stop
Author
Udha e mbarë  - Minatori
By Danny 

Intro x 4

           Fmaj7   G/E     Am
e--------0-------0---------0--------0-|
b------1-------3---------1---0-1-0----|
g----2-------4---------2--------------|
d--3-------5---------2----------------|
a-------------------------------------|
e-------------------------------------|

Versa:
           Fmaj7   G/E     Am
e--------0-------0---------0--------0-|
b------1-------3---------1---0-1-0----|
g----2-------4---------2--------------|
d--3-------5---------2----------------|
a-------------------------------------|
e-------------------------------------|


         Udha e mbare te qofte


           Fmaj7   G/E     Am
e--------0-------0---------0--------0-|
b------1-------3---------1---0-1-0----|
g----2-------4---------2--------------|
d--3-------5---------2----------------|
a-------------------------------------|
e-------------------------------------|
           ndoshta gjen me mire

           Fmaj7   G/E     Am
e--------0-------0---------0--------0-|
b------1-------3---------1---0-1-0----|
g----2-------4---------2--------------|
d--3-------5---------2----------------|
a-------------------------------------|
e-------------------------------------|
        Udha e mbare te qofte

           Fmaj7   G/E     Am
e--------0-------0---------0--------0-|
b------1-------3---------1---0-1-0----|
g----2-------4---------2--------------|
d--3-------5---------2----------------|
a-------------------------------------|
e-------------------------------------|
        tani je e lire


Pjesa e dytë:

         C                     Dm
e------------0-----------------1---------------|
b---------1----1------------3----3-------------|
g-------0--------0-------2---------2-----------|
d----2-------------2--0--------------0---------|
a--3-----------------------------------0-------|
e----------------------------------------------|
    Mund te shkosh ku nuk ishe me mua

            F          G           Am
e-----------------------------------------0--|
b-----------1-----------3---------1-0-1-0----|
g---------2-----------4---------2------------|
d-------3-----------5---------2--------------|
a---------------------------0----------------|
e--1----------3------------------------------|
       Mund te kesh cfare nuk kishe

        C                      Dm
e------------0-----------------1------------|
b---------1----1------------3----3----------|
g-------0--------0-------2---------2--------|
d----2-------------2--0--------------0------|
a--3-----------------------------------0----|
e-------------------------------------------|
Mund te besh cfaredo qe te duash


        F          G         Am           E                     E9
e------------------------------0-----------0-------0-----------3---------|
b--------1---------3--------1----1-----------0-------0------------0------|
g------2---------4--------2--------2-------------1------1-----1-----1----|
d----3---------5-------2----------------2--------------------2---------2-|
a--------------------0----------------2---------------------2------------|
e-1--------3-------------------------------------------------------------|
    se per mua me nuk je


Refreni:
(heavy dist.)

F5        G5       A5  kalimi A5  G5  F5
Udha e mbare te qofte

F5      G5      A5  kalimi   A5   G5  F5
kesaj i thone fund

F5          G5           A5
mund te qash te cmendesh prej vajit


D5(Dm)      C5        G5       A5
prej meje, udha e mbare te qofte

 A5           F5          G5               C5      G5         A5
Aaaaaaaaaaa, aaaaaaaaaa, aaaaaaaaaaaaaa,   Udha e mbare te qofte

C5                   D5
Mund te shkosh ku nuk ishe me mua
F5       G5             A5
mund te kesh cfare nuk kishe
C5                 D5
Mund te besh cfaredo qe te duash
         F5   G5        A5   E5
se per mua      me nuk je

Solo tabs for Udha e mbare


e-7br-----------7b----8-----12-13---15b(17)--12---10---------------------
b-----10------8----10-------------------------------------13----10fbr----
g-----------9------------------------------------------------------------
d------------------------------------------------------------------------
a------------------------------------------------------------------------
e------------------------------------------------------------------------


e------13-12-10----10--12--10------------------------------------------
b---10-----------13-----------13-12-10---------------------------------
g-10-----------------------------------12---9---7/5--7---(7bend)-------
d--------------------------------------------------------------------7-
a----------------------------------------------------------------------
e----------------------------------------------------------------------


e---------------1-0------5---------------------------------------------
b--------------------3-------------------------------------------------
g----4-5--4--2---------------------------------------------------------
d--7-------------------------------------------------------------------
a----------------------------------------------------------------------
e----------------------------------------------------------------------


Akordet janë:

F5 - 133xxx
G5 - 355xxx
A5 - 577xxx
C5 - 355xxx ose 81010xxx
E5 - 0799xx


Suksese!



            
            
Suggest correction
Creating personal tab
Creating personal tab
You can edit any tab online and save it as your Personal.

You can edit, replace or remove any tab part or add personal notes – all changes will be seen only by you.

Personal tabs can be accessed anytime from any device, even offline.
Learn more »
Give kudos to tab author, rate the tab!
1 2 3 4 5
comments
print report bad tab
guest
You may want to rate the tab now too:
select rating
Wanna post a correction for this tab? Suggest correction