Oops, an error
Loading. Please wait.

A Groovy Kind Of Love Bass Tab

1,391 views 1 this week
no commentswrite comment
1 2 3 4 5
please rate
add to favorites
launch autoscroll
font size
0
reset
guitar tuner
Tab Pro tools
  • play this tab
  • loop segment
  • change instrument
  • show fretboard
  • metronome
×
Best way to learn
"A Groovy Kind Of Love"
Autoscroll
slow
fast
+/-
esc
set tempo
stop
Contributor
A Groovy Kind Of Love
The Mindbenders
Written by Carole Bayer Sager and Toni Wine; released on single with "Love 
Is Good" as the B-side and on the album "A Groovy Kind Of Love"

Intro:
G|------- ------- ------- -------|------- ------- ------- -------|
D|-------------------------------|7-----------7---7--------------|
A|-------------------------------|-------------------------------|
E|-------------------------------|-------------------------------|



G|------- ------- ------- -------|------- ------- ------- -------|
D|-------------------------------|7------------------------------|
A|7-----------7---7--------------|-------------------------------|
E|-------------------------------|-------------------------------|
                                                  When I'm feeling

Verse:
G|------- ------- ------- -------|------- ------- ------- -------|
D|7-----------7---7--------------|-------------------------------|
A|-------------------------------|7-----------7---7--------------|
E|-------------------------------|-------------------------------|
  blue,           all I have  to  do      is      take a  look at


G|------- ------- ------- -------|------- ------- ------- -------|
D|7-----------7---7--------------|-------------------------------|
A|-------------------------------|7-----------7---7--------------|
E|-------------------------------|-------------------------------|
  you,            then I'm not so   blue.         When you're close to


G|------- ------- ------- -------|------- ------- ------- -------|
D|-------------------------------|-------------------------------|
A|7-----------7---7--------------|4-----------4---4--------------|
E|-------------------------------|-------------------------------|
  me,             I can feel your heart   beat,   I  can hear you
  ooooooooooooooooooooooooooooooooooooooooooooooooooooooooooooooo

G|------- ------- ------- -------|------- ------- ------- -------|
D|-------------------------------|-------------------------------|
A|-------------------------------|7-----------7---7--------------|
E|7-----------7---7--------------|-------------------------------|
  brea -  thing   in      my      ear.            Wouldn't you a-
  ooooooooooooooooooooooooooooooooooooooooooooo

G|------- ------- ------- -------|------- ------- ------- -------|
D|7-----------7---7--------------|-------------------------------|
A|-------------------------------|7-----------7---7--------------|
E|-------------------------------|-------------------------------|
  gree,           ba- by  you and me      got a   groovy  kind of


G|------- ------- ------- -------|------- ------- ------- -------|
D|7-----------7---7--------------|-------------------------------|
A|-------------------------------|7-----------7---7--------------|
E|-------------------------------|-------------------------------|
    love                              We  got a   groovy  kind of
                 (groovy  kind of     love)

G|------- ------- ------- -------|------- ------- ------- -------|
D|7-----------7---7--------------|-------------------------------|
A|-------------------------------|7-----------7---7--------------|
E|-------------------------------|-------------------------------|
    love                                          A - ny  time you
                 (groovy  kind of     love)
Verse:
G|------- ------- ------- -------|------- ------- ------- -------|
D|7-----------7---7---7----------|-------------------------------|
A|-------------------------------|7-----------7---7--------------|
E|-------------------------------|-------------------------------|
  want    to,     you can turn me on      to      a - ny- thing you


G|------- ------- ------- -------|------- ------- ------- -------|
D|7-----------7---7--------------|-------------------------------|
A|-------------------------------|7-----------7---7--------------|
E|-------------------------------|-------------------------------|
  want    to,     a - ny  time at   all.          When I taste your


G|------- ------- ------- -------|------- ------- ------- -------|
D|-------------------------------|----------------6--------------|
A|7-----------7---7-------6---5--|4-----------4-----------4---3--|
E|-------------------------------|-------------------------------|
  lips,           oh, I  start to shi  -  ver,    can't control the
  ooooooooooooooooooooooooooooooooooooooooooooooooooooooooooooooo

G|------- ------- ------- -------|------- ------- ------- -------|
D|----------------4--------------|----------------5-------6------|
A|2-----------2-----------2------|7---7---9---7-------7-------7--|
E|-------------------------------|-------------------------------|
  qui  -  ve  -   ring    in  -   side.           Wouldn't you a-
  ooooooooooooooooooooooooooooooooooooooooooooo

G|------- ------- ------- -------|------- ------- ------- -------|
D|7-----------7---7--------------|-------------------------------|
A|-------------------------------|7-----------7---7--------------|
E|-------------------------------|-------------------------------|
  gree,           ba- by  you and me      got a   groovy  kind of


G|------- ------- ------- -------|------- ------- ------- -------|
D|7-----------7---7--------------|-------------------------------|
A|-------------------------------|7-----------7---7--------------|
E|-------------------------------|-------------------------------|
    love                              We  got a   groovy  kind of
                 (groovy  kind of     love)

G|------- ------- ------- -------|
D|7------------------------------|
A|-------------------------------|
E|-------------------------------|
  love.

Verse (half-solo):
G|------- ------- ------- -------|------- ------- ------- -------|
D|8-----------8---8--------------|-------------------------------|
A|-------------------------------|8-----------8---8--------------|
E|-------------------------------|-------------------------------|



G|------- ------- ------- -------|------- ------- ------- -------|
D|8-----------8---8--------------|-------------------------------|
A|-------------------------------|8-----------8---8--------------|
E|-------------------------------|-------------------------------|
                                                  When I'm in your


G|------- ------- ------- -------|------- ------- ------- -------|
D|--------------------10---------|----------------7--------------|
A|8-----------8---8-------7---6--|5-----------5-----------5---4--|
E|-------------------------------|-------------------------------|
  arms,           nothing seems to mat -  ter,    if  the world would
  aaaaaaaaaaaaaaaaaaaaaaaaaaaaaaaaaaaaaaaaaaaaaaaaaaaaaaaaaaaaaaa

G|------- ------- ------- -------|------- ------- ------- -------|
D|----------------5--------------|----------------6-------7------|
A|3-----------3-----------3------|8---8---10--8-------8-------8--|
E|-------------------------------|-------------------------------|
  shat -  ter,    I       don't   care.           Wouldn't you a-
  aaaaaaaaaaaaaaaaaaaaaaaaaaaaaaaaaaaaaaaaaaaaaaaa

G|------- ------- ------- -------|------- ------- ------- -------|
D|8-----------8---8--------------|-------------------------------|
A|-------------------------------|8-----------8---8--------------|
E|-------------------------------|-------------------------------|
  gree,           ba- by  you and me      got a   groovy  kind of


G|------- ------- ------- -------|------- ------- ------- -------|
D|8-----------8---8--------------|-------------------------------|
A|-------------------------------|8-----------8---8--------------|
E|-------------------------------|-------------------------------|
    love                              We  got a   groovy  kind of
                 (groovy  kind of     love)

G|------- ------- ------- -------|------- ------- ------- -------|
D|8-----------8---8--------------|-------------------------------|
A|-------------------------------|8-----------8---8--------------|
E|-------------------------------|-------------------------------|
    love                              We  got a   groovy  kind of
                 (groovy  kind of     love)

G|------- ------- ------- -------|------- ------- ------- -------|
D|8-----------8---8--------------|8------------------------------|
A|-------------------------------|-------------------------------|
E|-------------------------------|-------------------------------|
  love.

Please e-mail me for any corrections, or write a comment.
comments
We did not receive enough feedback on this tab! Please rate:
print report bad tab
1 2 3 4 5
I want to post or [tab]
guest
You may want to rate the tab now too:
select rating
Please do not post tabs as comments. Select "correction" instead!