Oops, an error
Loading. Please wait.

Breakthrough Tab

version 1
version 1

Whole song

Interactive

692 views 1 this week
no commentswrite comment
1 2 3 4 5
please rate
add to favorites
launch autoscroll
font size
0
reset
how to read this tab
guitar tuner
Autoscroll
slow
fast
+/-
esc
set tempo
stop
Help us to improve Ultimate-Guitar.com Take our survey!
×
Author
Difficulty
novice
Intro(No guitar)

Heavy Intro(Play 2 times)
Guitar 1
e|------------------|-------5----------|------------------|----------------|
B|----8-------------|----8-----8-------|----8-------------|-----~----------|
G|-7-----5--7-------|-7-----------7--5-|-7-----5--7-------|-5~-------------|
D|-------------7--8-|------------------|-------------7--8-|----------------|
A|------------------|------------------|------------------|----------------|
E|------------------|------------------|------------------|----------------|

Guitar 2
e|------------------|------------------|------------------|----------------|
B|------------------|------------------|------------------|----------------|
G|------------------|------------------|------------------|----------------|
D|------------------|-3-----3-----3----|------------------|-8-----8-----8--|
A|-5-----5-----5----|-1-----1-----1----|-3-----3-----3----|-6-----6-----6--|
E|-3-----3-----3----|------------------|-1-----1-----1----|----------------|

First Verse(No guitar)

Pre-chorus(Play 2 times)
Guitar 1
e|------------------------------------------|
B|-------6----------------------------------|
G|-8--7------8--7--5------------------------|
D|---------------------8--7--8--7--5-5~~~~--|
A|------------------------------------------|
E|------------------------------------------|

Chorus(Play 4 times)
Guitar 1
e|------------------|-------5----------|------------------|----------------|
B|----8-------------|----8-----8-------|----8-------------|----------------|
G|-7-----5--7-------|-7-----------7--5-|-7-----5--7-------|-5~-------------|
D|-------------7--8-|------------------|-------------7--8-|----------------|
A|------------------|------------------|------------------|----------------|
E|------------------|------------------|------------------|----------------|

Guitar 2
e|------------------|------------------|------------------|----------------|
B|------------------|------------------|------------------|----------------|
G|------------------|------------------|------------------|----------------|
D|------------------|-3-----3-----3----|------------------|-8-----8-----8--|
A|-5-----5-----5----|-1-----1-----1----|-3-----3-----3----|-6-----6-----6--|
E|-3-----3-----3----|------------------|-1-----1-----1----|----------------|

Second verse(Play 2 times)
Guitar 1
e|-----------------|-----------------|-----------------|------------------|
B|-----------------|-----------------|-----------------|------------------|
G|-5-5-5-5-5-5-5-5-|-5-5-5-5-5-5-5-5-|-5-5-5-5-5-5-5-5-|-9-9-9-7-7-7-10-10|
D|-7-7-7-6-6-6-5-5-|-7-7-7-6-6-6-5-5-|-7-7-7-6-6-6-5-5-|-7-7-7-7-7-7-7--7-|
A|-----------------|-----------------|-----------------|------------------|
E|-----------------|-----------------|-----------------|------------------|

Pre-chorus(Play 2 times)
Guitar 1
e|------------------------------------------|
B|-------6----------------------------------|
G|-8--7------8--7--5------------------------|
D|---------------------8--7--8--7--5-5~~~~--|
A|------------------------------------------|
E|------------------------------------------|

Chorus(Play 4 times)
Guitar 1
e|------------------|-------5----------|------------------|----------------|
B|----8-------------|----8-----8-------|----8-------------|----------------|
G|-7-----5--7-------|-7-----------7--5-|-7-----5--7-------|-5~-------------|
D|-------------7--8-|------------------|-------------7--8-|----------------|
A|------------------|------------------|------------------|----------------|
E|------------------|------------------|------------------|----------------|

Guitar 2
e|------------------|------------------|------------------|----------------|
B|------------------|------------------|------------------|----------------|
G|------------------|------------------|------------------|----------------|
D|------------------|-3-----3-----3----|------------------|-8-----8-----8--|
A|-5-----5-----5----|-1-----1-----1----|-3-----3-----3----|-6-----6-----6--|
E|-3-----3-----3----|------------------|-1-----1-----1----|----------------|

Guitar 3(Only in the last repeat)
e|------------------|------------------|------------------|----------------|
B|------------------|------------------|------------------|----------------|
G|------------------|------------------|------------------|----------------|
D|------------------|------------------|------------------|----------------|
A|------------------|------------------|------------------|----------------|
E|------------------|------------------|------------------|-------15\\\\\\-|

Bridge
Guitar 2
e|------------------|------------------|------------------|----------------|
B|------------------|------------------|------------------|----------------|
G|------------------|---------3--------|------------------|----------------|
D|-3---5---8---6----|-3---5---3---6----|-3---5---8---6----|-3---5---8---6--|
A|-3---5---8---6----|-3---5---1---6----|-3---5---8---6----|-3---5---8---6--|
E|-1---3---6---4----|-1---3-------4----|-1---3---6---4----|-1---3---6---4--|

Chorus(Play 4 times)
Guitar 1
e|------------------|-------5----------|------------------|----------------|
B|----8-------------|----8-----8-------|----8-------------|----------------|
G|-7-----5--7-------|-7-----------7--5-|-7-----5--7-------|-5~-------------|
D|-------------7--8-|------------------|-------------7--8-|----------------|
A|------------------|------------------|------------------|----------------|
E|------------------|------------------|------------------|----------------|

Guitar 2
e|------------------|------------------|------------------|----------------|
B|------------------|------------------|------------------|----------------|
G|------------------|------------------|------------------|----------------|
D|------------------|-3-----3-----3----|------------------|-8-----8-----8--|
A|-5-----5-----5----|-1-----1-----1----|-3-----3-----3----|-6-----6-----6--|
E|-3-----3-----3----|------------------|-1-----1-----1----|----------------|

Outro(No guitar)

That's it guys, hope you enjoy my tab! Please rate, and comments are welcome! Stay metal \m/
Suggest correction
Give kudos to tab author, rate the tab!
1 2 3 4 5
comments
print report bad tab
guest
You may want to rate the tab now too:
select rating
Wanna post a correction for this tab? Suggest correction