Oops, an error
Loading. Please wait.

1989 Bass Tab

1,715 views 6 this week
no commentswrite comment
1 2 3 4 5
please rate
add to favorites
launch autoscroll
font size
0
reset
guitar tuner
Autoscroll
slow
fast
+/-
esc
set tempo
stop
Help us to improve Ultimate-Guitar.com Take our survey!
×
Author
G|-----------------|-----------------|-----------------|-----------------| 
D|-----------------|-----------------|-----------------|-----------------|
A|-----------------|-----------------|-----------------|-----------------| x2
E|-6---6---6---6---|-6---6---6---6---|-5---------------|-4---------------|
1 + 2 + 3 + 4 + 1 + 2 + 3 + 4 + 1 + 2 + 3 + 4 + 1 + 2 + 3 + 4 +


G|-----------------|-----------------|-----------------|-----------------| 
D|-----------------|-----------------|-----------------|-----------------|
A|-----------------|-----------------|-3---3-----------|-----------------|
E|-6---6---6---6---|-6---6---6---6---|-------4---------|-----------------|
1 + 2 + 3 + 4 + 1 + 2 + 3 + 4 + 1 + 2 + 3 + 4 + 1 + 2 + 3 + 4 +


G|-----------------|-----------------|-----------------|-----------------| 
D|-----------------|-----------------|-----------------|-----------------|
A|-----------------|-----------------|-------------3---|-4---4-----------| x2
E|-1---1---1---3---|-4---4---4---5---|-6---6---6-------|-----------------|
1 + 2 + 3 + 4 + 1 + 2 + 3 + 4 + 1 + 2 + 3 + 4 + 1 + 2 + 3 + 4 +


G|-----------------|-----------------|-----------------|-----------------| 
D|-----------------|-----------------|-----------------|-1-----1-----1---|
A|-----------------|-----------------|-1-----1-----1---|-----------------|
E|-2---2-------2---|-1---1-------1---|-----------------|-----------------|
1 + 2 + 3 + 4 + 1 + 2 + 3 + 4 + 1 + 2 + 3 + 4 + 1 + 2 + 3 + 4 +


G|-----------------|-----------------| 
D|-----------------|-----------------|
A|-----------------|-----------------|
E|-2---2-------2---|-1---1-------1---|
1 + 2 + 3 + 4 + 1 + 2 + 3 + 4 + 


G|-----------------|-----------------|-----------------|-----------------| 
D|-----------------|-----------------|-----------------|-----------------|
A|-----------------|-----------------|-----------------|-----------------| x2
E|-6---6---6---6---|-6---6---6---6---|-5---------------|-4---------------|
1 + 2 + 3 + 4 + 1 + 2 + 3 + 4 + 1 + 2 + 3 + 4 + 1 + 2 + 3 + 4 +


G|-----------------|-----------------|-----------------|-----------------| 
D|-----------------|-----------------|-----------------|-----------------|
A|-----------------|-----------------|-3---3-----------|-----------------|
E|-6---6---6---6---|-6---6---6---6---|-------4---------|-----------------|
1 + 2 + 3 + 4 + 1 + 2 + 3 + 4 + 1 + 2 + 3 + 4 + 1 + 2 + 3 + 4 +


G|-----------------|-----------------|-----------------|-----------------| 
D|-----------------|-----------------|-----------------|-----------------|
A|-----------------|-----------------|-------------3---|-4---4-----------| x2
E|-1---1---1---3---|-4---4---4---5---|-6---6---6-------|-----------------|
1 + 2 + 3 + 4 + 1 + 2 + 3 + 4 + 1 + 2 + 3 + 4 + 1 + 2 + 3 + 4 +


G|-----------------|-----------------|-----------------|-----------------| 
D|-----------------|-----------------|-----------------|-1-----1-----1---|
A|-----------------|-----------------|-1-----1-----1---|-----------------|
E|-2---2-------2---|-1---1-------1---|-----------------|-----------------|
1 + 2 + 3 + 4 + 1 + 2 + 3 + 4 + 1 + 2 + 3 + 4 + 1 + 2 + 3 + 4 +


G|-----------------|-----------------| 
D|-----------------|-----------------|
A|-----------------|-----------------|
E|-2---2-------2---|-1---1-------1---|
1 + 2 + 3 + 4 + 1 + 2 + 3 + 4 + 


G|-----------------|-----------------|-----------------|-----------------| 
D|-----------------|-----------------|-----------------|-----------------|
A|-----------------|-----------------|-----------------|-----------------|
E|-1-----1-----1---|-2-----2-----2---|-4-----4-----4---|-4---------------|
1 + 2 + 3 + 4 + 1 + 2 + 3 + 4 + 1 + 2 + 3 + 4 + 1 + 2 + 3 + 4 +



G|-----------------|-----------------|-----------------| 
D|-----------------|-----------------|-----------------|
A|-----------------|-----------------|-----------------|
E|-1-----1-----1---|-2-----2-----2---|-4---------------|
1 + 2 + 3 + 4 + 1 + 2 + 3 + 4 + 1 + 2 + 3 + 4 + 


G|-----------------|-----------------|-----------------|-----------------| 
D|-----------------|-----------------|-----------------|-----------------|
A|-----------------|-----------------|-----------------|-----------------|
E|-1-----1-----1---|-2-----2-----2---|-4-----4-----4---|-4---------------|
1 + 2 + 3 + 4 + 1 + 2 + 3 + 4 + 1 + 2 + 3 + 4 + 1 + 2 + 3 + 4 +



G|-----------------|-----------------|-----------------| 
D|-----------------|-----------------|-----------------|
A|-----------------|-----------------|-----------------|
E|-1-----1-----1---|-2-----2-----2---|-4---------------|
1 + 2 + 3 + 4 + 1 + 2 + 3 + 4 + 1 + 2 + 3 + 4 + 



G|-----------------|-----------------|-----------------|-----------------| 
D|-----------------|-----------------|-----------------|-----------------|
A|-----------------|-----------------|-------------3---|-4---4-----------| x2
E|-1---1---1---3---|-4---4---4---5---|-6---6---6-------|-----------------|
1 + 2 + 3 + 4 + 1 + 2 + 3 + 4 + 1 + 2 + 3 + 4 + 1 + 2 + 3 + 4 +


G|-----------------|-----------------|-----------------|-----------------| 
D|-----------------|-----------------|-----------------|-1-----1-----1---|
A|-----------------|-----------------|-1-----1-----1---|-----------------|
E|-2---2-------2---|-1---1-------1---|-----------------|-----------------|
1 + 2 + 3 + 4 + 1 + 2 + 3 + 4 + 1 + 2 + 3 + 4 + 1 + 2 + 3 + 4 +


G|-----------------|-----------------| 
D|-----------------|-----------------|
A|-----------------|-----------------|
E|-2---2-------2---|-1---1-------1---|
1 + 2 + 3 + 4 + 1 + 2 + 3 + 4 +
Suggest correction
Give kudos to tab author, rate the tab!
1 2 3 4 5
comments
print report bad tab
guest
You may want to rate the tab now too:
select rating
Wanna post a correction for this tab? Suggest correction