Oops, an error
Loading. Please wait.

Animal Bass Tab

1,323 views 6 this week
1 commentread comment
1 2 3 4 5
please rate
add to favorites
launch autoscroll
font size
0
reset
guitar tuner
Tab Pro tools
  • play this tab
  • loop segment
  • change instrument
  • show fretboard
  • metronome
×
Best way to learn
"Animal"
Autoscroll
slow
fast
+/-
esc
set tempo
stop
Contributor
Difficulty
Tuning
novice
D A D G B E
-------------------------------------------------------------------------------
                             ANIMAL - Mindless Self Indulgence
-------------------------------------------------------------------------------
Tabbed by: killthisrock
Tuning: Drop D


Intro/verse
G|------------------|
D|------------------|
A|------------------|
D|111----4-44-------|

Chorus 'this animal...'
G|------------------|
D|------------------|
A|---------4444-----|
D|11111--------666--|

After first chorus 'unbelieveabbbblllllleeeee'
G|------------------|
D|------------------|
A|222222222222------|
D|------------444---|

Verse
G|------------------|
D|------------------|
A|------------------|
D|111----4-44-------|

2nd chorus
G|------------------|
D|------------------|
A|---------4444-----|
D|11111--------666--|

After second chorus
G|------------------|
D|------------------|
A|6666654-----------|
D|--------6669-88---|

Bridge 'Oh no, not me...'
G|------------------|x4
D|------------------|
A|------------------|
D|1---4---9---6-----|

After bridge
G|------------------|
D|------------------|
A|6666654-----------|
D|--------6669-88---|

(These are one's not eleven!)
G|----------------------------|
D|----------------------------|
A|----------------------------|
D|11----11----11----6669-88---|

3rd chorus
G|------------------|
D|------------------|
A|---------4444-----|
D|11111--------666--|

After third chorus
G|------------------|
D|------------------|
A|222222222222------|
D|------------444---|

Verse
G|------------------|
D|------------------|
A|------------------|
D|111----4-44-------|

End with:
G|-------|
D|-------|
A|-------|
D|111----|


A very fun song to play, also really easy!


| /  slide up
| \  slide down
| h  hammer-on
| p  pull-off
| ~  vibrato
| +  harmonic
| x  Mute note
===============================================================================
comments
We did not receive enough feedback on this tab! Please rate:
print report bad tab
1 2 3 4 5
1 comment total.
0 reply
killthisrock wrote on July 10 2013, 08:45 am

Also forgot to mention: '11' is one one not eleven.

I want to post or [tab]
guest
You may want to rate the tab now too:
select rating
Please do not post tabs as comments. Select "correction" instead!