Oops, an error
Loading. Please wait.

Animal Tab

2,718 views 3 this week
no commentswrite comment
1 2 3 4 5
excellent!
x 4
add to favorites
launch autoscroll
font size
0
reset
how to read this tab
guitar tuner
Autoscroll
slow
fast
+/-
esc
set tempo
stop
Help us to improve Ultimate-Guitar.com Take our survey!
×
Contributor
Difficulty
Tuning
novice
D A D G B E
Tuning:DADGBE

***NOTE*** palm muted indicated by "."

e|----------------|
B|----------------|
G|----------------|
D|111----4-44-----|
A|111----4-44-----|
D|111----4-44-----|
Make a wish
Make it hurt
With my hand
Up your skirt (tonight)
Signal direction institute correctional
Files me alphabetical h-h-hypothetical

e|----------------|
B|----------------|
G|--------66666---|
D|11111---6666666-|
A|11111---4444466-|
D|11111--------66-|
It's animal it's animal
It's animal unbelievable
It's animal it's animal
It's animal unbelieva...

(after 1st chorus)
e|----------------|
B|----------------|
G|4444444444444---|
D|4444444444444444|
A|2222222222222444|
D|-------------444|
  ................
...ble

(after 2nd chorus)
e|----------------|
B|----------------|
G|8888876---------|
D|8888865-6669-88-|
A|6666654-6669-88-|
D|--------6669-88-|

e|--------------------|
B|--------------------|
G|--------------------|
D|--------------------|
A|--------------------|
D|1----1/44-4/9----88-|
Oh no not me
pissed off ripped off repeat (tonight)
Oh no not me
What's my excuse this time to suffer it

e|--------------------------------|
B|--------------------------------|
G|--------------------------------|
D|11------11------11------6669-88-|
A|11------11------11------6669-88-|
D|11------11------11------6669-88-|
                             unbelievable




=D I'm confident this is 100% ;)
comments
print report bad tab
I want to post or [tab]
guest
You may want to rate the tab now too:
select rating
Please do not post tabs as comments. Select "correction" instead!