Oops, an error
Loading. Please wait.

Backmask Tab

1,946 views 6 this week
3 commentsread comments
1 2 3 4 5
x 3
add to favorites
launch autoscroll
font size
0
reset
how to read this tab
guitar tuner
Autoscroll
slow
fast
+/-
esc
set tempo
stop
Help us to improve Ultimate-Guitar.com Take our survey!
×
Author
Difficulty
Tuning
novice
D A D G B E
Tuning:DADGBE

e|---------------------------------|
B|---------------------------------|
G|8----9----8-----------9-8--------|
D|8----7-10-6--9-8------9-8--------|
A|6-------8----7-6------7-6--------|
D|---------------------------------|

e|-----------------|
B|-----------------|
G|5--58-8-13--13-10|
D|5--58-8-13--13-10|
A|3--36-6-11--11--8|
D|-----------------|
Hate all the people you love....

e|----------------|
B|----------------|
G|5x5x8-----------|
D|5x5x8---6x6x3---|
A|3x3x6---6x6x3---|
D|--------6x6x3---|
Destroooooy. Always destroy

e|-------------|
B|-------------|
G|5---6-5------|
D|5---6-5------|
A|3---4-3------|
D|-------------|
Destroy. Yourself


And that is the song in its completion [minus the arrangement; but if you know the song; 
can work it out innit xD]. after the second chorus there no guitar so... yeah; short 
it be; this is the whole thing =D
Suggest correction
Give kudos to tab author, rate the tab!
1 2 3 4 5
comments
print report bad tab
3 comments total.
+3 reply
Forsakensoul 52 Aug 01, 2008 01:02 PM

Thank you! XD I could not figure out the friggin intro, lol X3

+3 reply
Seizurekid13 10 Aug 15, 2008 11:38 AM

Finally!
Somebody posts the tab for backmask!
Thank you thank you thank you thank you!

0 reply
l00n 10 Apr 28, 2015 01:09 AM

E standard (EADGBE) tuning seems okay for this song?

song seems to be in Eb/D#

intro same as before (thanks to the bayliff)

e|---------------------------------|
B|---------------------------------|
G|8----9----8-----------9-8--------|
D|8----7-10-6--9-8------9-8--------|
A|6-------8----7-6------7-6--------|
E|---------------------------------|

e|---------------------------------|
B|---------------------------------|
G|-9----8---------------9-8--------|
D|-9----8---------------9-8--------|
A|-7----6---------------7-6--------|
E|---------------------------------|

e|-----------------------------------
B|-----------------------------------
G|-----9----8-----------9----8-------
D|-----7-10-6--9-8------7-10-6--9-8--
A|--------8----7-6---------8----7-6--
E|-----------------------------------

Arpeggios (HATE and devour the young...)

e|--------------------------------6----------------|
B|-------------------------------------------------|
G|-----5------------10-8--------8---8---------12-10|
D|---5---5--------8-----------6-------------10-----|
A|-3------------6-------------------------8--------|
E|-------------------------------------------------|

e|---------------------------------------------|
B|---------------------------------------------|
G|-----5----------10-8-------------------------|
D|---5---5------8-------------6.---------------|
A|-3----------6--------------------------------|
E|---------------------------------------------|


Lower Chords (DESTROOOOOOOOOOOOY... ALWAYYS DESTROY)


e|---------------------------------|
B|---------------------------------|
G|-5-5--------3-3------------------|
D|-5-5-3------3-3-4----------------|
A|-3-3-3------1-1-4----------------|
E|-----1----------2----------------|

e|--------------------|------------|
B|--------------------|------------|
G|-5---------6-5---...|-5-5-5-5-5--|
D|-5---------6-5---...|-5-5-5-5-5--|
A|-3---------4-3---...|-3-3-3-3-3--|
E|--------------------|------------|

guest
You may want to rate the tab now too:
select rating
Wanna post a correction for this tab? Suggest correction