Oops, an error
Loading. Please wait.

Bitches Bass

version 1
version 1

Whole song

Interactive

2,891 views 6 this week
no commentswrite comment
1 2 3 4 5
2 more votes to show rating
add to favorites
launch autoscroll
font size
0
reset
guitar tuner
×
Best way to learn
"Bitches"
Autoscroll
slow
fast
+/-
esc
set tempo
stop
Author
Difficulty
Tuning
novice
D A D G
Bitches by MSI
tabbed by Pat Murphy
Drop D tuning

Verse
G----------------------|
D----------------------|
A-----------------1h2--|
D--0--0----------------|

Chorus (throughout the projects)
G-------------------------------|
D-------------------------------|
A-------------------------------|
D--0-3-0-3-0-1-0-1-0-4-3--------|

Bridge (POW)
G---------------------------|
D---------------------------|
A-5----------------------5--|
D---------------------------|
Suggest correction
Give kudos to tab author, rate the tab!
1 2 3 4 5
comments
print report bad tab
guest
You may want to rate the tab now too:
select rating
Wanna post a correction for this tab? Suggest correction