Oops, an error
Loading. Please wait.

Bitches Bass Tab

version 2
version 2

Whole song

Interactive

4,940 views 12 this week
no commentswrite comment
1 2 3 4 5
accurate
x 6
add to favorites
launch autoscroll
font size
0
reset
guitar tuner
Tab Pro tools
  • play this tab
  • loop segment
  • change instrument
  • show fretboard
  • metronome
×
Best way to learn
"Bitches"
Autoscroll
slow
fast
+/-
esc
set tempo
stop
Contributor
Difficulty
intermediate
Bitches by MSI
This you can play in standard tuning

Intro
No Bass

Verse
G----------------------| x4
D-----------------6/7--|
A--5--5----------------|
E----------------------|

G----------------------|
D----------------------|
A--5--5----------------|
E----------------------|

Chorus (throughout the projects)
G-------------------------------| x3
D--0-3-0-3-0-1-0-1-0-4-3--------|
A-------------------------------|
E-------------------------------|

G-------------------------------| 
D--0-3-0-3-0-1------------------|
A-------------------------------|
E-------------------------------|

Pre-verse
G-------------------------------| x2
D-------------------------------|
A--5-5--------------------------|
E-------------------------------|

2nd chorus (done)
G-------------------------------| x2
D--0-3-0-3-0-1-0-1-0-4-3--------|
A-------------------------------|
E-------------------------------|

G-------------------------------| x2
D--0-3-0-3-0-1-0-1-0------------|
A-------------------------------|
E-------------------------------|

G-------------------------------|
D--0-1-0-1-4-3------------------|
A-------------------------------|
E-------------------------------|

Bridge (POW)
G---------------------------| x2
D---------------------------|
A-55------------------------|
E---------------------------|

            x3
G-------------|-------------| x2
D-------------|-------------|
A-56----------|--6666-------|
E-------------|-------------|

Break

G---------------------------| x5
D---------------------6-7---|
A-5-7-5-7-5-3-8-5-8-5-------|
E---------------------------|

Break
                         x4 (no 44 4th time)
G-----|---------------------|
D-6/7-|---------------------|
A-----|-55-88-77-44---------|
E-----|---------------------|

Intro
verse
Chorus
Pre-Verse
Verse
Chorus
2nd chorus
Intro
Bridge
2nd Chorus
comments
print report bad tab
I want to post or [tab]
guest
You may want to rate the tab now too:
select rating
Please do not post tabs as comments. Select "correction" instead!