Oops, an error
Loading. Please wait.

Bomb This Track Tab

2,091 views 1 this week
no commentswrite comment
1 2 3 4 5
2 more votes to show rating
add to favorites
launch autoscroll
font size
0
reset
how to read this tab
guitar tuner
Autoscroll
slow
fast
+/-
esc
set tempo
stop
Help us to improve Ultimate-Guitar.com Take our survey!
×
Author
Difficulty
Tuning
novice
D A D G B E
Tuning:DADGBE

I'm not sure but I think this is synth.... either ways...
e|------------------------|---------|
B|------------------------|---------|
G|------------------------|---------|
D|------------------------|7-6------|
A|1--1------4---2-1--1----|7-6------|
D|------------------------|7-6------|
Yo! Thanks for the party and the mazarati y'all rocked my body but now I'm going; bye!
Thanks for the party, the mo with the girls, the front row tickets. Yeah goodbye
Thanks for the party and the paparazzi, everybody knows me; know them dirt
Thanks for the party, the house, girl, the press, and oh yeah; doing my laundry

e|----------------------------------|
B|----------------------------------|
G|----------------------------------|
D|8----------------6----------------|
A|8----------------6----------------|
D|8----------------6----------------|
I wanna testify; I was not notified; when did my mother start bugging out and getting high?
I wanna take a chance deep in your underpant; all my little girls; everybody kiss my ass

(pre chorus)
e|-----|
B|-----|
G|-----|
D|-2/8-|
A|-2/8-|
D|-2/8-|

e|--------------------------------|---|
B|--------------------------------|---|
G|----------------6---------------|---|
D|8-------4---3---6-------4---3---|-1-|
A|8-------4---3---4-------4---3---|-1-|
D|8-------4---3-----------4---3---|-1-|
Bomb! Bomb this track! Disrespect
No regrets. Bomb this track

e|----------------|
B|----------------|
G|----------------|
D|6-6-------7-6---|
A|4-4-------7-6---|
D|----------7-6---|

e|------------------------------------------|
B|------------------------------------------|
G|------------------------------------------|
D|8-------8-------9--99--99--9(12)(11)1211--|
A|8-------8-------9--99--99--9(12)(11)1211--|
D|8-------8-------9--99--99--9(12)(11)1211--|
You want my story lady and my money, ladies. least that what happens when you take what 
are giving baby

e|--------------------------------|
B|--------------------------------|
G|--------------------------------|
D|4--4----3--3----8--8----8--8----|
A|4--4----3--3----8--8----8--8----|
D|4--4----3--3----8--8----8--8----|


I believe that's it. This is one of my favourites off the album =] but I guess you don't 
that much lol
Suggest correction
Give kudos to tab author, rate the tab!
1 2 3 4 5
comments
print report bad tab
guest
You may want to rate the tab now too:
select rating
Wanna post a correction for this tab? Suggest correction