Oops, an error
Loading. Please wait.

Bullshit Bass Tab

594 views 3 this week
no commentswrite comment
1 2 3 4 5
please rate
add to favorites
launch autoscroll
font size
0
reset
guitar tuner
Autoscroll
slow
fast
+/-
esc
set tempo
stop
Help us to improve Ultimate-Guitar.com Take our survey!
×
Author
Difficulty
0:13
G ---------------|
D ---------------|
A -------4----4--|
E -6--444---66-6-| x4

0:22
G ----------------------------------|
D ----------------------------------|
A -66666----22222----77777----11111-|
E ----------------------------------| x1

0:27
G -------------------------------------|
D -------------------------------------|
A ----------22222----77777----11111111-|
E -------------------------------------|x1

0:31
G ------------------------------------|
D ------------------------------------|
A -66666----22222----77777----1-1-1-1-|
E ------------------------------------| x1

0:36
G ---------------|
D ---------------|
A -------4----4--|
E -6--444---66-6-| x2

0:41
G ------------------------------------|
D ------------------------------------|
A -66666----22222----77777----1-1-1-1-|
E ------------------------------------| x1

0:45
G ---------------------|
D ---------------------|
A -666666/111111222222-|
E ---------------------| x3

0:52
G ---------------|
D ---------------|
A -------4----4--|
E -6--444---66-6-| x4

1:01
G ----------------------------------|
D ----------------------------------|
A -66666----22222----77777----11111-|
E ----------------------------------| x1

1:05
G -------------------------------------|
D -------------------------------------|
A -66666----22222----77777----11111111-|
E -------------------------------------|x1

1:10
G ------------------------------------|
D ------------------------------------|
A -66666----22222----77777----1-1-1-1-|
E ------------------------------------| x1

1:14
G ----------------------------------|
D ----------------------------------|
A -66666----22222----77777----11111-|
E ----------------------------------| x1

1:19
G ---------------------------|
D ---------------------------|
A -6----3----2--------6----3-|
E ---------------------------|x1

1:28
G ---------------------|
D ---------------------|
A -666666/111111222222-|
E ---------------------| x3

1:35
G ---------------|
D ---------------|
A -------4----4--|
E -6--444---66-6-| x4

2:02
G --------------------------|
D --------------------------|
A -666666/111111222222-6767-|
E --------------------------| x8

2:20
G ---------------------------------------------|
D ---------------------------------------------|
A -6--------66--------66----6----6---6--666666-|
E ---------------------------------------------| x1

2:29
G --------------------------|
D --------------------------|
A -666666/111111222222-6767-|
E --------------------------| x4
Suggest correction
Give kudos to tab author, rate the tab!
1 2 3 4 5
comments
print report bad tab
guest
You may want to rate the tab now too:
select rating
Wanna post a correction for this tab? Suggest correction