Oops, an error
Loading. Please wait.

Capitol P Tab

1,241 views 1 this week
no commentswrite comment
1 2 3 4 5
please rate
add to favorites
launch autoscroll
font size
0
reset
how to read this tab
guitar tuner
Autoscroll
slow
fast
+/-
esc
set tempo
stop
Help us to improve Ultimate-Guitar.com Take our survey!
×
Author
Difficulty
novice
tuning: Standard/Drop D
'Capitol P'

----------------------------------------------------------------------|
----------------------------------------------------------------------|
---11-(0)-9-(0)-14-(0)-9-(0)--7-7-7-7-7-7-11-9h----7-7-7-7-7-7-11-9h--|
----------------------------------------------------------------------|
----------------------------------------------------------------------|
----------------------------------------------------------------------|

   I don't...                 stuck with me...     trapped in a...
----------------------------------------------------------------------|
----------------------------------------------------------------------|
---11-(0)-9-(0)-14-(0)-9-(0)--7-7-7-7-7-7-11/9h----7-7-7-7-7-7-11/9h--|
---9------7-----12-----7------5-5-5-5-5-5-9-/7-----5-5-5-5-5-5-9-/7---|
---9------7-----12-----7------5-5-5-5-5-5-9-/7-----5-5-5-5-5-5-9-/7---|
----------------------------------------------------------------------|

   I don't...                 touchin' me...       jugglin' my...
----------------------------------------------------------------------|
----------------------------------------------------------------------|
---11-(0)-9-(0)-14-(0)-9-(0)--7-7-7-7-7-7-11/9h----7-7-7-7-7-7-11/9h--|
---9------7-----12-----7------5-5-5-5-5-5-9-/7-----5-5-5-5-5-5-9-/7---|
---9------7-----12-----7------5-5-5-5-5-5-9-/7-----5-5-5-5-5-5-9-/7---|
----------------------------------------------------------------------|

   Preverted!... Converted!... Inserted!...  Deserted!...
---------------------------------------------------------------------|
---------------------------------------------------------------------|
---11-11---------7-7-----------11-11---------7-7--------9---9--------|
---9--9----------5-5-----------9--9----------5-5--------7---7--------|
---9--9----------5-5-----------9--9----------5-5--------7---7--------|
---------------------------------------------------------------------|


----------------------------------------------------------------------|
----------------------------------------------------------------------|
---4-4--4-4--4-4--4-4-----------4-4--4-4--4-4--4-4--------------------|
---2-2--2-2--2-2--2-2-----------2-2--2-2--2-2--2-2--------------------|
---2-2--2-2--2-2--2-2-----------2-2--2-2--2-2--2-2--------------------|
----------------------------------------------------------------------|

   You know I'm...             You know I'm...
----------------------------------------------------------------------|
----------------------------------------------------------------------|
---4-4----4-4----7---7---------4-4----4-4----7---7--------------------|
---2-2----2-2----5---5---------2-2----2-2----5---5--------------------|
---2-2----2-2----5---5---------2-2----2-2----5---5--------------------|
----------------------------------------------------------------------|

   I don't...                 stuck with me...     trapped in a...
----------------------------------------------------------------------|
----------------------------------------------------------------------|
---11-(0)-9-(0)-14-(0)-9-(0)--7-7-7-7-7-7-11/9h----7-7-7-7-7-7-11/9h--|
---9------7-----12-----7------5-5-5-5-5-5-9-/7-----5-5-5-5-5-5-9-/7---|
---9------7-----12-----7------5-5-5-5-5-5-9-/7-----5-5-5-5-5-5-9-/7---|
----------------------------------------------------------------------|

   I don't...                 touchin' me...       jugglin' my...
----------------------------------------------------------------------|
----------------------------------------------------------------------|
---11-(0)-9-(0)-14-(0)-9-(0)--7-7-7-7-7-7-11/9h----7-7-7-7-7-7-11/9h--|
---9------7-----12-----7------5-5-5-5-5-5-9-/7-----5-5-5-5-5-5-9-/7---|
---9------7-----12-----7------5-5-5-5-5-5-9-/7-----5-5-5-5-5-5-9-/7---|
----------------------------------------------------------------------|

-------------------------------------------------------------------|   
So-so-so-so... Pre-pre-pre-pre... So-so-so-so...
-------------------------------------------------------------------|
-------------------------------------------------------------------|
---11-11-11-11-9------4-4-4-4-7------11-11-11-11-9------4-4-4-4-7--|
---9--9--9--9--7------2-2-2-2-5------9--9--9--9--7------2-2-2-2-5--|
---9--9--9--9--7------2-2-2-2-5------9--9--9--9--7------2-2-2-2-5--|
-------------------------------------------------------------------|

   Preverted!... Converted!... Inserted!...  Deserted!...
----------------------------------------------------------------------|
----------------------------------------------------------------------|
---11-11---------7-7-----------11-11---------7-7--------9---9---------|
---9--9----------5-5-----------9--9----------5-5--------7---7---------|
---9--9----------5-5-----------9--9----------5-5--------7---7---------|
----------------------------------------------------------------------|


----------------------------------------------------------------------|
----------------------------------------------------------------------|
---4-4--4-4--4-4--4-4-----------4-4--4-4--4-4--4-4--------------------|
---2-2--2-2--2-2--2-2-----------2-2--2-2--2-2--2-2--------------------|
---2-2--2-2--2-2--2-2-----------2-2--2-2--2-2--2-2--------------------|
----------------------------------------------------------------------|

   You know I'm...             You know I'm...
----------------------------------------------------------------------|
----------------------------------------------------------------------|
---4-4----4-4----7---7---------4-4----4-4----7---7--------------------|
---2-2----2-2----5---5---------2-2----2-2----5---5--------------------|
---2-2----2-2----5---5---------2-2----2-2----5---5--------------------|
----------------------------------------------------------------------|

   I don't...                 stuck with me...     trapped in a...
----------------------------------------------------------------------|
----------------------------------------------------------------------|
---11-(0)-9-(0)-14-(0)-9-(0)--7-7-7-7-7-7-11/9h----7-7-7-7-7-7-11/9h--|
---9------7-----12-----7------5-5-5-5-5-5-9-/7-----5-5-5-5-5-5-9-/7---|
---9------7-----12-----7------5-5-5-5-5-5-9-/7-----5-5-5-5-5-5-9-/7---|
----------------------------------------------------------------------|

   I don't...                 touchin' me...       jugglin' my...
----------------------------------------------------------------------|
----------------------------------------------------------------------|
---11-(0)-9-(0)-14-(0)-9-(0)--7-7-7-7-7-7-11/9h----7-7-7-7-7-7-11/9h--|
---9------7-----12-----7------5-5-5-5-5-5-9-/7-----5-5-5-5-5-5-9-/7---|
---9------7-----12-----7------5-5-5-5-5-5-9-/7-----5-5-5-5-5-5-9-/7---|
----------------------------------------------------------------------|



This took me all morning! I hope you like...
Suggest correction
Give kudos to tab author, rate the tab!
1 2 3 4 5
comments
print report bad tab
guest
You may want to rate the tab now too:
select rating
Wanna post a correction for this tab? Suggest correction