Oops, an error
Loading. Please wait.

Clarissa Bass Tab

3,236 views 9 this week
no commentswrite comment
1 2 3 4 5
please rate
add to favorites
launch autoscroll
font size
0
reset
guitar tuner
Autoscroll
slow
fast
+/-
esc
set tempo
stop
Help us to improve Ultimate-Guitar.com Take our survey!
×
Author
Difficulty
novice
-------------------------------------------------------------------------------
			     Clarissa - MSI
-------------------------------------------------------------------------------

Tabbed By : Mr. Monkey

Tuning: Standard (EADG)

Intro:

G|----------|
D|--1---1---|
A|----------|
E|----------|

Verse:

G|---------------------------------------------------------------------------|
D|-1-1-----0-0-----4---------------------------------------------------------|
A|--------------2-2----------------------------------------------------------|
E|---------------------------------------------------------------------------|

Bridge: ('Little teenage bitch')

G|-------1-------------------------------------------------------------------|
D|-111-34--------------------------------------------------------------------|
A|---------------------------------------------------------------------------|
E|---------------------------------------------------------------------------|

Chorus: ('Explain this')

G|---------------------------------------------------------------------------|
D|--1-1-1---------------2-2--------------------------------------------------|
A|--------1---1-1-2-2-2--2---------------------------------------------------|
E|---------------------------------------------------------------------------|

Breakdown:

G|---------------------------------------------------------------------------|
D|-1------1-------1------1---------------------------------------------------|
A|----1-------1-------1-----1------------------------------------------------|
E|---------------------------------------------------------------------------|

Song Structure:
Intro x1
Verse x3
Bridge x3
Intro x1
Chorus x4
Verse x3
Bridge x3
Breakdown x1
Chorus x15 (with pause after second)


Very simple song for bass, but nonetheless fun to play.

| /  slide up
| \  slide down
| h  hammer-on
| p  pull-off
| ~  vibrato
| +  harmonic
| x  Mute note
===============================================================================
Suggest correction
Give kudos to tab author, rate the tab!
1 2 3 4 5
comments
print report bad tab
guest
You may want to rate the tab now too:
select rating
Please do not post tabs as comments. Select "correction" instead!