Oops, an error
Loading. Please wait.

Diabolical Bass Tab

1,058 views 1 this week
no commentswrite comment
1 2 3 4 5
2 more votes to show rating
add to favorites
launch autoscroll
font size
0
reset
guitar tuner
Autoscroll
slow
fast
+/-
esc
set tempo
stop
Help us to improve Ultimate-Guitar.com Take our survey!
×
 F----------------------------------------------------|
 C----------------------------------------------------|
 G-----33--------------------------------------33-----|
 D-----------5----------------------3-----------------|
   (aha!)      the best of my knowledge...   oohoo...

chorus
 F----------------------------------------------------------------|
 C----------------------------------------------------------------|
 G-4(8x)-0(8x)-----3(8x)--------------------------4(4x)-3(4x)-----|
 D----------------------------------------------------------------|
  ohooo baby  youre just like all the rest     ur just like all the rest

 F----------------------------------------------------------------|
 C----------------------------------------------------------------|
 G---3--------3-----------3-----3-----3---------------------------|
 D----------------------------------------------------------------|
    rest    rest......  rest rest   rest

 F---------------------------------------------------|
 C---------------------------------------------------|
 G-------4-----------------4-------------------------|
 D-----------------3----------------3----------------|
      aaaha!     aahaa!  ahaa!   ahaaa!
Suggest correction
Give kudos to tab author, rate the tab!
1 2 3 4 5
comments
print report bad tab
guest
You may want to rate the tab now too:
select rating
Wanna post a correction for this tab? Suggest correction