Oops, an error
Loading. Please wait.

Dicks Are For My Friends Bass Tab

1,763 views 3 this week
1 commentread comment
1 2 3 4 5
excellent!
x 6
add to favorites
launch autoscroll
font size
0
reset
guitar tuner
Tab Pro tools
  • play this tab
  • loop segment
  • change instrument
  • show fretboard
  • metronome
Autoscroll
slow
fast
+/-
esc
set tempo
stop
Contributor
-------------------------------------------------------------------------------
               DICKS ARE FOR MY FRIENDS - Mindless Self Indulgence
-------------------------------------------------------------------------------

Tabbed By : ausmus
e-mail: the_black_jc@hotmail.com

Tuning: EADG (standard)


Intro/Verse
No Bass

(0:19)                         (3x)
G|---------------------------------|----------------|
D|---------------------------------|----------------|
A|---------------------------------|----------------|
E|----2-2-----4-4----5-5----7-7----|-----3-----2----|
   "Dicks... are... for... my..."    "Frieeeeeeeeeeeennnnnds"   

(0:30)
G|-----------------------------|
D|-----------------------------|
A|-----------------------------|
E|-----7-----7-----3-----2-----|
  "Dicks, friends"   "Do do do do do"	

Verse 2
No Bass

(0:47)                         (3x)
G|---------------------------------|----------------|
D|---------------------------------|----------------|
A|---------------------------------|----------------|
E|----2-2-----4-4----5-5----7-7----|-----3-----2----|
   "Dicks... are... for... my..."    "Frieeeeeeeeeeeennnnnds"   


(0:58)                     (2x)
G|-----------------------------|
D|-----------------------------|
A|-----------------------------|
E|-----7-----7-----3-----2-----|
  "Dicks! Friends!"   "Do do do do do"	
  "My! House!"        "Do do do do do"	

(1:09)
G|-----------------|
D|-----------------|
A|-----------------|
E|-----7-----7-----|
   "Dicks! Friends!"
comments
print report bad tab
1 comment total.
+1 reply
yevveh wrote on November 22 2007, 04:57 pm

Should be -

(0:19) / (0:47) (3x)
G|-----|-----|
D|-----|-----|
A|----2-2-----4-4----5 -5----7-7----|-----|
E|-----|-----3-----2----|
"Dicks... are... for... my..." "Frieeeeennnnnds"

I want to post or [tab]
guest
You may want to rate the tab now too:
select rating
Please do not post tabs as comments. Select "correction" instead!