Oops, an error
Loading. Please wait.

Due Bass Tab

2,125 views 9 this week
no commentswrite comment
1 2 3 4 5
1 last vote to show rating
add to favorites
launch autoscroll
font size
0
reset
guitar tuner
Autoscroll
slow
fast
+/-
esc
set tempo
stop
Help us to improve Ultimate-Guitar.com Take our survey!
×
Author
Difficulty
novice
Mindless Self Indulgence- Due (Bass Tab)
-----------------------------------------
Tuning- Standard (EADG)
The version my Tab is timed to can be found on the album "IF"

I have done this by ear so if there are any mistakes let me know

Verse
---------

(0:08)
G|------------------------------------------------|
D|-----33-33-5------------------1-----------------|
A|33--------------66--1-1-1-----------------------|
E|---------------------------2--------------------|   (x2)

(0:20)
G|
D|------------(REST)-------------------
A|
E|


(0:35)
G|---22-44-22-------------------------------------|
D|11----------------------------------------------|
A|------------------------------------------------|           (X2)
E|------------------------------------------------|

Chorus
------------

(0:41)
*Solo*
G|-----------------------------------------------|
D|-----------------------------------------------|
A|-----2------------3----------------------------| *Fast*
E|00-2---2-0--0-0-2------------------------------|

G|-----------------------------------------------|
D|2-55-------------------------------------------|
A|-----------------------------------------------|   (x2)
E|-----------------------------------------------|

(0:51)
G|-----------------------------------------------|
D|-----------------------------------------------|
A|-----------------------------------------------|
E|-4-(x16)--*Fast*-------------------------------|

(0:55)
G|-----------------------------------------------|
D|-----------------------------------------------|
A|3-2--------------------------------------------|
E|-----------------------------------------------|

(0:56)
-Verse ( x2)

(1:11)
G|-----------------------------------------------|
D|-5--3--1--5--3--0------------------------------|
A|-----------------------------------------------| (x2)
E|-----------------------------------------------|


-Chorus ( x1) (1:23)

(1:46)
G|-----------------------------------------------|
D|-----------------------------------------------|
A|-3--------6------------------------------------|
E|-----------------------------------------------|


-Verse (x2) (1:51)

END

--------------------------------------

(TAB by Louise O'Donnell/loubot123)
Suggest correction
Give kudos to tab author, rate the tab!
1 2 3 4 5
comments
print report bad tab
guest
You may want to rate the tab now too:
select rating
Wanna post a correction for this tab? Suggest correction