Oops, an error
Loading. Please wait.
1,600 views 3 this week
no commentswrite comment
1 2 3 4 5
1 last vote to show rating
add to favorites
launch autoscroll
font size
0
reset
how to read this tab
guitar tuner
Autoscroll
slow
fast
+/-
esc
set tempo
stop
Help us to improve Ultimate-Guitar.com Take our survey!
×
Author
Difficulty
intermediate
I found this song really weird to tab. I'm 90% sure this is right but *gaah* it's dead 
to hear some of the notes in the bridge and verse >_< so just fyi; I realize this might 
be perfect. But it's damn close.


Tuning:DADGBE

[00.01]
e|-------------------------------------|
B|-------------------------------------|
G|5-5----10-10-1010-12-8-8-----------8-|
D|5-5----10-10-1010-12-8-8----8-8-85-8-|
A|3-3-----8--8--8-8-10-6-6----8-8-85-6-|
D|----------------------------8-8-85---|

[00.07]
e|--------------------------------|
B|--------------------------------|
G|88887777-5-------5-------57--8--|
D|----------5---88--5---88--------|
A|--------------------------------|
D|--------------------------------|

[00.34]
e|--------------|
B|--------------|
G|----4-4-----5-|
D|5-5-4-4-3-3-5-|
A|5-5-2-2-3-3-3-|
D|5-5-----3-3---|

[00.41]
e|-----------------|
B|-----------------|
G|-----------------|
D|-----------2-5-5-|
A|-----------2-5-5-|
D|-----------2-5-5-|

[00.51]
e|------------------------------------|
B|------------------------------------|
G|--------------------------------5-4-|
D|5-5-5-5-5-5-5-5-5-5-5-5-5-5-5---5-4-|
A|5-5-5-5-5-5-5-5-5-5-5-5-5-5-5---3-2-|
D|5-5-5-5-5-5-5-5-5-5-5-5-5-5-5-------|
  . . . . . . . . . . . . . . .

[01.09]
e|--------------------------------|
B|--------------------------------|
G|--5-------10---8----------------|
D|--5-------10---8---3-------6---5|
A|--3--------8---6---3-------6---5|
D|-------------------3-------6---5|
Suggest correction
Give kudos to tab author, rate the tab!
1 2 3 4 5
comments
print report bad tab
guest
You may want to rate the tab now too:
select rating
Wanna post a correction for this tab? Suggest correction