Oops, an error
Loading. Please wait.

Evening Wear Bass Tab

version 1
version 1

Whole song

Interactive

3,983 views 15 this week
no commentswrite comment
1 2 3 4 5
accurate
x 4
add to favorites
launch autoscroll
font size
0
reset
guitar tuner
Autoscroll
slow
fast
+/-
esc
set tempo
stop
Help us to improve Ultimate-Guitar.com Take our survey!
×
Author
Difficulty
Tuning
novice
D A D G B E
-------------------------------------------------------------------------------
			     Evening Wear - Mindless Self Indulgence
-------------------------------------------------------------------------------

Tabbed By : Necrotic
e-mail: Joelschwallier@gmail.com

Tuning: Drop D

Intro
G|-----------------|   |-----------------|
D|-----------------|   |-----------------|
A|-----------------|   |-----------------|
D|66666--69-9-91-1-|x3 |66666--69--99--9-|

G|-----------------|   |-----------------|
D|-----------------|   |-----------------|
A|-----------------|   |-----------------|
D|66666--69-9-91-1-|x3 |66666--69--99--9-|

Chorus
G|--------------------------------|
D|--------------------------------|
A|--------------------------------|
D|66666666999999991-------88888888|x2
                  .
G|--------------------------------|
D|--------------------------------|
A|--------------------------------|
D|6-------9-------1-------8-------|
                  .
Post-Chorus
G|-----------------|    |--------|
D|-----------------|    |--------|
A|4444444433332222-|    |4-4-4-x-|
D|-----------------|x3  |--------|

Pre-Verse
G|---------------------------------------------------------------------|
D|---------------------------------------------------------------------|
A|44-44-46-62-2-2-----------------44-44-46-62-2-2----------------------|
D|----------------66-66-69-99-9-9--------------------------------66--66|
            < < <           < < <           < < <

Verse
G|-----------------|   |-----------------|
D|-----------------|   |-----------------|
A|-----------------|   |-----------------|
D|66666--69-9-91-1-|x3 |66666--69--99--9-|

G|-----------------|   |-----------------|
D|-----------------|   |-----------------|
A|-----------------|   |-----------------|
D|66666--69-9-91-1-|x3 |66666--69--99--9-|

Chorus
G|--------------------------------|
D|--------------------------------|
A|--------------------------------|
D|66666666999999991-------88888888|x2
                  .
G|--------------------------------|
D|--------------------------------|
A|--------------------------------|
D|6-------9-------1-------8-------|

Post-Chorus
G|-----------------|    |--------|
D|-----------------|    |--------|
A|4444444433332222-|    |4-4-4-x-|
D|-----------------|x3  |--------|

Pre-Verse
G|---------------------------------------------------------------------|
D|---------------------------------------------------------------------|
A|44-44-46-62-2-2-----------------44-44-46-62-2-2----------------------|
D|----------------66-66-69-99-9-9--------------------------------66--66|
            < < <           < < <           < < <

Verse
G|-----------------|   |-----------------|
D|-----------------|   |-----------------|
A|-----------------|   |-----------------|
D|66666--69-9-91-1-|x3 |66666--69--99--9-|

G|-----------------|   |-----------------|
D|-----------------|   |-----------------|
A|-----------------|   |-----------------|
D|66666--69-9-91-1-|x3 |66666--69--99--9-|

Chorus
G|--------------------------------|
D|--------------------------------|
A|--------------------------------|
D|66666666999999991-------88888888|x2
                  .
G|--------------------------------|
D|--------------------------------|
A|--------------------------------|
D|6-------9-------1-------8-------|

Post-Chorus
G|-----------------|    |--------|
D|-----------------|    |--------|
A|4444444433332222-|    |4-4-4-x-|
D|-----------------|x3  |--------|

Pre-Verse
G|--------------------------------------------------------------|
D|--------------------------------------------------------------|
A|44-44-46-62-2-2-----------------44-44-46-62-2-2---------------|
D|----------------66-66-69-99-9-9------------------6-66-9-9-----|
            < < <           < < <           < < <

Bridge
G|----------------------------|
D|----------------------------|
A|--------6-------------------|
D|6---------------2-----1--4--|x2

G|----------------------------------------------------------------|
D|----------------------------------------------------------------|
A|--------66666666------------------------66666666----------------|
D|66666666--------222222221111444466666666--------222222221-------|

Chorus
G|--------------------------------|
D|--------------------------------|
A|--------------------------------|
D|66666666999999991-------88888888|x2
                  .
G|------------------------------------------------|
D|------------------------------------------------|
A|------------------------------------------------|
D|6-------9-------1-------8-------6-------9-------|
                  .                               

Post-Chorus
G|-----------------|    |--------|
D|-----------------|    |--------|
A|4-------3---2----|    |--------|
D|-----------------|x3  |0-------|

Pre-Verse
G|--------------------------------------------------------------|
D|--------------------------------------------------------------|
A|44-44-46-62-2-2-----------------44-44-46-62-2-2---------------|
D|----------------66-66-69-99-9-9------------------------6------|
            < < <           < < <           < < <


| /  slide up
| \  slide down
| h  hammer-on
| p  pull-off
| ~  vibrato
| +  harmonic
| x  Mute note
===============================================================================
Suggest correction
comments
print report bad tab
guest
You may want to rate the tab now too:
select rating
Wanna post a correction for this tab? Suggest correction