Oops, an error
Loading. Please wait.

Evening Wear Tab

version 1
version 1

Whole song

Interactive

3,063 views 6 this week
4 commentsread comments
1 2 3 4 5
accurate
x 5
add to favorites
launch autoscroll
font size
0
reset
how to read this tab
guitar tuner
Autoscroll
slow
fast
+/-
esc
set tempo
stop
Help us to improve Ultimate-Guitar.com Take our survey!
×
Contributor
Difficulty
Tuning
QueenQH 59
novice
D A D G B E
Mindless Self Indulgence
Evening Wear
IF

I'm not sure how right this is, but this is how I've been playing it.

Verse:

e|-------------------------|
B|-------------------------|
G|-------------------------|
D|-6-6-6-6--x--9-9-9--1-1--|
A|-6-6-6-6--x--9-9-9--1-1--|
E|-6-6-6-6--x--9-9-9--1-1--|

e|-------------------------|
B|-------------------------|
G|-------------------------|
D|-6-6-6-6--x--9-9-9--1-1--|
A|-6-6-6-6--x--9-9-9--1-1--|
E|-6-6-6-6--x--9-9-9--1-1--|

e|-----------------------------------------|
B|-----------------------------------------|
G|-----------------------------------------|
D|-6-6-6-6--x--9-9-9--1-1--6-6-6-6--4-4-4-4|
A|-6-6-6-6--x--9-9-9--1-1--6-6-6-6--4-4-4-4|    Repeat
E|-6-6-6-6--x--9-9-9--1-1--4-4-4-4--4-4-4-4|

Chorus:

e|-----------------------------|
B|-----------------------------|
G|-----------------------------|
D|-6-6-6-6--9-9-9-9--1--8-8-8-8|
A|-6-6-6-6--9-9-9-9--1--8-8-8-8|
E|-6-6-6-6--9-9-9-9--1--8-8-8-8|

e|-----------------------------|
B|-----------------------------|
G|-----------------------------|
D|-6-6-6-6--9-9-9-9--1--8-8-8-8|
A|-6-6-6-6--9-9-9-9--1--8-8-8-8|
E|-6-6-6-6--9-9-9-9--1--8-8-8-8|

e|------------------------------|
B|------------------------------|
G|------------------------------|
D|-6-6-6-6--9-9-9-9--1--8-8-8-8-|
A|-6-6-6-6--9-9-9-9--1--8-8-8-8-|
E|-6-6-6-6--9-9-9-9--1--8-8-8-8-|

e|---------------|
B|---------------|
G|---------------|
D|-(11)-(10)-(11)| x3
A|-(11)-(10)-(11)|
E|-(11)-(10)-(11)|

Bop Bop:

e|--------------------------------|
B|--------------------------------|
G|--------------------------------|
D|--------------------------------| x2
A|-------4-4-44-6---2-2-2--------2|
E|-6-6-6------------------4-4-44--|

Verse:

e|-------------------------|
B|-------------------------|
G|-------------------------|
D|-6-6-6-6--x--9-9-9--1-1--|
A|-6-6-6-6--x--9-9-9--1-1--|
E|-6-6-6-6--x--9-9-9--1-1--|

e|-------------------------|
B|-------------------------|
G|-------------------------|
D|-6-6-6-6--x--9-9-9--1-1--|
A|-6-6-6-6--x--9-9-9--1-1--|
E|-6-6-6-6--x--9-9-9--1-1--|

e|-----------------------------------------|
B|-----------------------------------------|
G|-----------------------------------------|
D|-6-6-6-6--x--9-9-9--1-1--6-6-6-6--4-4-4-4|
A|-6-6-6-6--x--9-9-9--1-1--6-6-6-6--4-4-4-4|    Repeat
E|-6-6-6-6--x--9-9-9--1-1--4-4-4-4--4-4-4-4|

Chorus:

e|-----------------------------|
B|-----------------------------|
G|-----------------------------|
D|-6-6-6-6--9-9-9-9--1--8-8-8-8|
A|-6-6-6-6--9-9-9-9--1--8-8-8-8|
E|-6-6-6-6--9-9-9-9--1--8-8-8-8|

e|-----------------------------|
B|-----------------------------|
G|-----------------------------|
D|-6-6-6-6--9-9-9-9--1--8-8-8-8|
A|-6-6-6-6--9-9-9-9--1--8-8-8-8|
E|-6-6-6-6--9-9-9-9--1--8-8-8-8|

e|------------------------------|
B|------------------------------|
G|------------------------------|
D|-6-6-6-6--9-9-9-9--1--8-8-8-8-|
A|-6-6-6-6--9-9-9-9--1--8-8-8-8-|
E|-6-6-6-6--9-9-9-9--1--8-8-8-8-|

e|---------------|
B|---------------|
G|---------------|
D|-(11)-(10)-(11)| x3
A|-(11)-(10)-(11)|
E|-(11)-(10)-(11)|

Bop Bop:

e|--------------------------------|
B|--------------------------------|
G|--------------------------------|
D|--------------------------------| x2
A|-------4-4-44-6---2-2-2--------2|
E|-6-6-6------------------4-4-44--|

Bridge:

e|-------------------------------------|
B|-------------------------------------|
G|-------------------------------------|
D|-------8-8---------------------------| x4
A|-6-6---6-6--2-2---1---2--------------|
E|-6-6--------2-2---1---2--------------|


Chorus:

e|-----------------------------|
B|-----------------------------|
G|-----------------------------|
D|-6-6-6-6--9-9-9-9--1--8-8-8-8|
A|-6-6-6-6--9-9-9-9--1--8-8-8-8|
E|-6-6-6-6--9-9-9-9--1--8-8-8-8|

e|-----------------------------|
B|-----------------------------|
G|-----------------------------|
D|-6-6-6-6--9-9-9-9--1--8-8-8-8|
A|-6-6-6-6--9-9-9-9--1--8-8-8-8|
E|-6-6-6-6--9-9-9-9--1--8-8-8-8|

e|------------------------------|
B|------------------------------|
G|------------------------------|
D|-6-6-6-6--9-9-9-9--1--8-8-8-8-|
A|-6-6-6-6--9-9-9-9--1--8-8-8-8-|
E|-6-6-6-6--9-9-9-9--1--8-8-8-8-|

e|---------------------|
B|---------------------|
G|---------------------|
D|-6-6-6-6--9-9-9-9--1-|
A|-6-6-6-6--9-9-9-9--1-|
E|-6-6-6-6--9-9-9-9--1-|

e|---------------|
B|---------------|
G|---------------|
D|-(11)-(10)-(11)| x3
A|-(11)-(10)-(11)|
E|-(11)-(10)-(11)|

Bop Bop:

e|--------------------------------|
B|--------------------------------|
G|--------------------------------|
D|--------------------------------| x2
A|-------4-4-44-6---2-2-2--------2|
E|-6-6-6------------------4-4-44--|

e|-----|
B|-----|
G|-----|
D|--6--|
A|--6--|
E|--6--|
comments
print report bad tab
4 comments total. Showing first comments.
+1 reply
the bayliff 923 wrote on June 30 2008, 08:13 pm

Es cool; but tuning is DADGBE not EADGBE

Other than that; tres bein! 5 stars ^^

0 reply
DanzoBanjo 142 wrote on August 17 2008, 11:38 am

ooooh pretty much perfect (Y) thanks for the tab : D
but I think maybe it should be like this:
in the chorus
e|------------------------------|
B|------------------------------|
G|------------------------------|
D|-6-6-6-6--9-9-9-9--2--8-8-8-8-|
A|-6-6-6-6--9-9-9-9--2--8-8-8-8-|
E|-6-6-6-6--9-9-9-9--2--8-8-8-8-|

e|---------------|
B|---------------|
G|---------------|
D|-(11)-(10)-(9)-| x3
A|-(11)-(10)-(9)-|
E|-(11)-(10)-(9)-|

other than that it's pretty much a perfect tab : D
then again I haven't the foggiest if that's right. I just think it sounds better

0 reply
QueenQH 59 wrote on November 29 2008, 03:13 am

Haha, I forgot to it to D when I typed it XD
It says Drop D at the top, but yeah, my bad.

I want to post or [tab]
guest
You may want to rate the tab now too:
select rating
Please do not post tabs as comments. Select "correction" instead!