Oops, an error
Loading. Please wait.

Faggot Bass

version 1
version 1

Whole song

Interactive

4,720 views 6 this week
2 commentsread comments
1 2 3 4 5
3 more votes to show rating
add to favorites
launch autoscroll
font size
0
reset
guitar tuner
×
Best way to learn
"Faggot"
Autoscroll
slow
fast
+/-
esc
set tempo
stop
Author
Difficulty
  follow
novice
This song is playd high on the neck so every 1111 means 11-11.

Intro
G|----------------|
D|6--688--9-------|
A|---------99--999|
E|----------------|

Verse         
G|----------------------------|
D|88-88---------88-88---------|
A|------1111-88------1111-8[8]| <-----only-play-this-8-on-the-last-8-verses
E|----------------------------|

Chorus
G|-----------------------------------------|
D|-----------------------------------------|
A|88101077998810106-88101077998810106-6-6-6|
E|-----------------------------------------|

Bridge
G|--------------|
D|88-1111-------|
A|-------1111-88|
E|--------------|

Order
Intro X2
Verse X2
Chorus X1
Intro X2
Verse X2
Chorus X1
Intro X2
Bridge X4
Verse X4
Chorus X1
Verse X4
Suggest correction
Give kudos to tab author, rate the tab!
1 2 3 4 5
comments
print report bad tab
2 comments total.
0 reply
bass mad =] 10 Dec 01, 2007 09:50 AM

It doesn't sound right on the verse
where you have put 88 on the D string.

0 reply
bopper989 31 Jun 10, 2008 09:20 PM

dude, in the 88 10 10 7 7 9 9 part or whatever, like are you deaf
you cant use a chromatic scale like that in a song xD 78910 does not work

guest
You may want to rate the tab now too:
select rating
Wanna post a correction for this tab? Suggest correction