Oops, an error
Loading. Please wait.

Faggot Bass Tab

version 2
version 2

Whole song

Interactive

1,154 views 3 this week
1 commentread comment
1 2 3 4 5
1 last vote to show rating
add to favorites
launch autoscroll
font size
0
reset
guitar tuner
Autoscroll
slow
fast
+/-
esc
set tempo
stop
Help us to improve Ultimate-Guitar.com Take our survey!
×
Author
Difficulty
novice
-------------------------------------------------------------------------------
                             FAGGOT - Mindless Self Indulgence
-------------------------------------------------------------------------------
Tabbed by: killthisrock
Tuning: Standard


Intro: 'I've been denied...'
G|---------------------| x2
D|---------------------|
A|6--6/88--8-----------|
E|----------77--777----|

Verse: 'I tried to consume...'
G|---------------------| x4
D|---------------------|
A|88--88---------------|
E|--------99--66-------|

Chorus: 'Dig me now...'          
G|-------------------------------------|
D|-------------------------------------|    
A|8-8--11-11--7-7--10-10--8-8--11-11--7|    
E|-------------------------------------|
 Rest for 'Faggot, faggot, faggot'
G|---------------------------------------------|
D|---------------------------------------------|
A|8-8--11-11--7-7--10-10--8-8--11-11--7-7-7-7--|
E|---------------------------------------------|

Pre-verse
G|-------------------------------------------------|
D|-------------------------------------------------|
A|6--6/88--8--------------------6--6/88--8---------|
E|----------77--777-7-7-7-----------------77--777--|

Bridge
G|---------------------------| x4
D|---------------------------|
A|-8-8--11-11--7-7--10-10----|
E|---------------------------|

G|---------------------------| x4
D|---------------------------|
A|8--8-----------------------|
E|------9--6-----------------|

Chorus: 'Dig me now...'          
G|-------------------------------------|
D|-------------------------------------|    
A|8-8--11-11--7-7--10-10--8-8--11-11--7|    
E|-------------------------------------|
 Rest for 'Faggot, faggot, faggot'
G|---------------------------------------------|
D|---------------------------------------------|
A|8-8--11-11--7-7--10-10--8-8--11-11--7-7-7-7--|
E|---------------------------------------------|

Pre-verse
G|-------------------------------------------------|
D|-------------------------------------------------|
A|6--6/88--8--------------------6--6/88--8---------|
E|----------77--777-7-7-7-----------------77--777--|

Outro: 'More, LESS'
G|---------------------| x4
D|---------------------|
A|88--88---------------|
E|--------99--66-------|

End with:
G|------|
D|------|
A|88----|
E|------|


Awesome song, and really easy to play!

| /  slide up
| \  slide down
| h  hammer-on
| p  pull-off
| ~  vibrato
| +  harmonic
| x  Mute note
===============================================================================
Suggest correction
Give kudos to tab author, rate the tab!
1 2 3 4 5
comments
print report bad tab
1 comment total.
0 reply
blackstationsix 44 Aug 02, 2014 10:12 PM

sounds good to me !

guest
You may want to rate the tab now too:
select rating
Wanna post a correction for this tab? Suggest correction