Oops, an error
Loading. Please wait.

Faggot Tab

version 3
version 3

Whole song

Interactive

4,747 views 1 this week
no commentswrite comment
1 2 3 4 5
accurate
x 4
add to favorites
launch autoscroll
font size
0
reset
how to read this tab
guitar tuner
Autoscroll
slow
fast
+/-
esc
set tempo
stop
Help us to improve Ultimate-Guitar.com Take our survey!
×
Difficulty
novice
---------------------------------------------------------------------------
                         FAGGOT BY MINDLESS SELF INDULGENCE
---------------------------------------------------------------------------
Tabbed by: Katie
Email: one_cool_goalie@msn.com

Tuning: standard



fig a
e|-------------------------------------------------------------------------|
B|-------------------------------------------------------------------------|
G|----8--8/10-10--10-------------------------------------------------------|
D|----8--8/10-10--10-9-9---999---------------------------------------------|
A|----6--6/8--8---8--9-9---999---------------------------------------------|
E|-------------------7-7---777---------------------------------------------|

fig b
e|-------------------------------------------------------------------------|
B|-------------------------------------------------------------------------|
G|-----10-10----10-10------------------------------------------------------|
D|-----10-10----10-10---11-11---8-8----------------------------------------|
A|-----8--8-----8--8----11-11---8-8----------------------------------------|
E|----------------------9--9----6-6----------------------------------------|

fig c
e|-------------------------------------------------------------------------|
B|-------------------------------------------------------------------------|
G|-----10-10----10-10------------------------------------------------------|
D|-----10-10----10-10---11-11---8------------------------------------------|
A|-----8--8-----8--8----11-11---8------------------------------------------|
E|----------------------9--9----6------------------------------------------|

fig d
e|-------------------------------------------------------------------------|
B|-------------------------------------------------------------------------|
G|-----10-10---13-13---9-9---12-12-----------------------------------------|
D|-----10-10---13-13---9-9---12-12-----------------------------------------|
A|-----8--8----11-11---7-7---10-10-----------------------------------------|
E|-------------------------------------------------------------------------|

fig e
e|-------------------------------------------------------------------------|
B|-------------------------------------------------------------------------|
G|-----10-10---13-13---9---------------------------------------------------|
D|-----10-10---13-13---9---------------------------------------------------|
A|-----8--8----11-11---7---------------------------------------------------|
E|-------------------------------------------------------------------------|

fig f
e|-------------------------------------------------------------------------|
B|-------------------------------------------------------------------------|
G|-----10-10---13-13---8-8-8-8---------------------------------------------|
D|-----10-10---13-13---8-8-8-8---------------------------------------------|
A|-----8--8----11-11---6-6-6-6---------------------------------------------|
E|-------------------------------------------------------------------------|

fig g
e|-------------------------------------------------------------------------|
B|-------------------------------------------------------------------------|
G|----8--8/10-10--10----------999------------------------------------------|
D|----8--8/10-10--10-9-9---999999------------------------------------------|
A|----6--6/8--8---8--9-9---999777------------------------------------------|
E|-------------------7-7---777---------------------------------------------|


Song Order:
just listen to the song, its pretty much all laid out there. its pretty easy.

kay thanks bye
Suggest correction
comments
print report bad tab
guest
You may want to rate the tab now too:
select rating
Please do not post tabs as comments. Select "correction" instead!