Oops, an error
Loading. Please wait.

Faggot Tab

version 4
version 4

Whole song

Interactive

856 views 1 this week
no commentswrite comment
1 2 3 4 5
please rate
add to favorites
launch autoscroll
font size
0
reset
how to read this tab
guitar tuner
Tab Pro tools
  • play this tab
  • loop segment
  • change instrument
  • show fretboard
  • metronome
×
Best way to learn
"Faggot"
Autoscroll
slow
fast
+/-
esc
set tempo
stop
Mindless Self Indulgence - Faggot

Tabbed by: Jason - qpofthc@gmail.com

Tuning: Standard

Effects: Distortion

e-19-19-19-19-19-19-19----19-19-19-19-19-19-19--|
B-----------------------------------------------|
G-----------------------------------------------|  3x
D-----------------------------------------------|
A-----------------------------------------------|
E-----------------------------------------------|

v(the 9 above "best" isn't an accident. it's just the way i heard the song.)v

e----------------------------------------------------|
B----------------------------------------------------|
G-----8------------8/10-10-----10--------------------|
D-----8------------8/10-10-----10--9--9--------9-9-9-|  2x
A-----6------------6/-8--8------9--9--9--------9-9-9-|
E----------------------------------7--7--------7-7-7-|

     I've been denied all the best------------ultrasex

e--------------------------------------------------------------|
B--------------------------------------------------------------|
G---10-10-----------10-10--------------------------------------|
D---10-10-----------10-10---------11-11----------------8--8----|
A----8--8------------8--8---------11-11----------------8--8----|
E----------------------------------9--9----------------6--6----|

     I            I tried to consume just like a super faggot i got some

e------------------------------------------------------------|
B------------------------------------------------------------|
G---10-10-------10-10----------------------------------------|
D---10-10-------10-10---------11-11-------------------8------|
A----8--8--------8--8---------11-11-------------------8------|
E------------------------------9--9-------------------6------|

    dude         how could you bringamotherfuckersumn so good he couldn't say

e-----------------------------------------------------------|
B-----------------------------------------------------------|
G-10-10-------10-10-----------------------------------------|
D-10-10-------10-10---------11-11-------------------8--8----|
A--8--8--------8--8---------11-11-------------------8--8----|
E----------------------------9--9-------------------6--6----|

  no       you nailed me hard   i love em when they don't give a motherfuckin

e-------------------------------------------------------------------|
B-------------------------------------------------------------------|
G-10-10----------10-10----------------------------------------------|
D-10-10----------10-10-------------11-11-------------------8--------|
A--8--8-----------8--8-------------11-11-------------------8--------|
E-----------------------------------9--9-------------------6--------|

   shit         i couldve been some1    instead of falling flat upon my

e-----------------------------------------------------------------------|
B-----------------------------------------------------------------------|
G---10------10-------13-------13--------9-------9--------12--------12---|
D---10------10-------13-------13--------9-------9--------12--------12---|
A----8-------8-------11-------11--------7-------7--------10--------10---|
E-----------------------------------------------------------------------|

    ass              dig      me now                    fuck       me

e-----------------------------------------------------------------|
B-----------------------------------------------------------------|
G---10------10-------13--------13------9--------------------------|
D---10------10-------13--------13------9--------------------------|
A----8-------8-------11--------11------7--------------------------|
E-----------------------------------------------------------------|


 later          and sing it    to the tune of faggot faggot faggot

e-------------------------------------------------------------------|
B-------------------------------------------------------------------|
G--10------10-------13-------13-------9-------9-------12-------12---|
D--10------10-------13-------13-------9-------9-------12-------12---|
A---8-------8-------11-------11-------7-------7-------10-------10---|
E-------------------------------------------------------------------|

   ow              dig       me now                  fuck      me

e------------------------------------------------------------------|
B------------------------------------------------------------------|
G--10------10-------13-------13-------9-------9-------9-------9----|
D--10------10-------13-------13-------9-------9-------9-------9----|
A---8-------8-------11-------11-------7-------7-------7-------7----|
E------------------------------------------------------------------|

 later          and sing it with the

e----------------------------------------------------------------------|
B----------------------------------------------------------------------|
G---8------------8/10-10-----------10----------------------------------|
D---8------------8/10-10-----------10--9--9--------9-9-9---9---9---9---|
A---6------------6/-8--8------------9--9--9--------9-9-9---9---9---9---|
E--------------------------------------7--7--------7-7-7---7---7---7---|

    I've been denied       all the best       ultrasex

e---------------------------------------------------------|
B---------------------------------------------------------|
G---8------------8/10-10----------10----------------------|
D---8------------8/10-10----------10--9--9----------9-9-9-|
A---6------------6/-8--8-----------9--9--9----------9-9-9-|
E-------------------------------------7--7----------7-7-7-|

    I've been denied     all the best          ultrasex

e-------------------------------------------------------------|
B-------------------------------------------------------------|
G--10-10------10-10-------------------------------------------|
D--10-10------10-10-------------11-11-----------------8--8----|
A---8--8-------8--8-------------11-11-----------------8--8----|
E--------------------------------9--9-----------------6--6----|

    I       I could've been a star  itfreaksmeoutwheni sound just like my

e--------------------------------------------------------|
B--------------------------------------------------------|
G--10-10-------10-10-------------------------------------|
D--10-10-------10-10-------------11-11----------------8--|
A---8--8--------8--8-------------11-11----------------8--|
E---------------------------------9--9----------------6--|

   mom     i could've rocked the spot instead of bein justanotherfaggotlike i

e-----------------------------------------------------------------|
B-----------------------------------------------------------------|
G--10-10-------10-10----------------------------------------------|
D--10-10-------10-10-----------11-11----------------------8--8----|
A---8--8--------8--8-----------11-11----------------------8--8----|
E-------------------------------9--9----------------------6--6----|

   am        i playedthatshit staight blowin suckas on the side hopin i'd get

e-------------------------------------------------|
B-------------------------------------------------|
G--10-10-------10-10------------------------------|
D--10-10-------10-10---------11-11-------------8--|
A---8--8--------8--8---------11-11-------------8--|
E-----------------------------9--9-------------6--|

    laid   now everybody     knows   no way in hell i can ever live it

e-----------------------------------------------------------------------|
B-----------------------------------------------------------------------|
G---10------10-------13-------13--------9-------9--------12--------12---|
D---10------10-------13-------13--------9-------9--------12--------12---|
A----8-------8-------11-------11--------7-------7--------10--------10---|
E-----------------------------------------------------------------------|

   down              dig      me now                    fuck       me

e-----------------------------------------------------------------|
B-----------------------------------------------------------------|
G---10------10-------13--------13------9--------------------------|
D---10------10-------13--------13------9--------------------------|
A----8-------8-------11--------11------7--------------------------|
E-----------------------------------------------------------------|


 later          and sing it    to the tune of faggot faggot faggot

e-------------------------------------------------------------------|
B-------------------------------------------------------------------|
G--10------10-------13-------13-------9-------9-------12-------12---|
D--10------10-------13-------13-------9-------9-------12-------12---|
A---8-------8-------11-------11-------7-------7-------10-------10---|
E-------------------------------------------------------------------|

   ow              dig       me now                  fuck      me

e------------------------------------------------------------------|
B------------------------------------------------------------------|
G--10------10-------13-------13-------9-------9-------9-------9----|
D--10------10-------13-------13-------9-------9-------9-------9----|
A---8-------8-------11-------11-------7-------7-------7-------7----|
E------------------------------------------------------------------|

 later          and sing it with the

e----------------------------------------------------------------------|
B----------------------------------------------------------------------|
G---8------------8/10-10-----------10----------------------------------|
D---8------------8/10-10-----------10--9--9--------9-9-9---9---9---9---|
A---6------------6/-8--8------------9--9--9--------9-9-9---9---9---9---|
E--------------------------------------7--7--------7-7-7---7---7---7---|

    I've been denied       all the best       ultrasex

e---------------------------------------------------------|
B---------------------------------------------------------|
G---8------------8/10-10----------10----------------------|
D---8------------8/10-10----------10--9--9----------9-9-9-|
A---6------------6/-8--8-----------9--9--9----------9-9-9-|
E-------------------------------------7--7----------7-7-7-|

    I've been denied      all the best         ultrasex

e--------------------------------------------------------|
B--------------------------------------------------------|
G----10----10------13----13------------------------------|
D----10----10------13----13-----11-----11------8-----8---| 2x
A-----8-----8------11----11-----11-----11------8-----8---|
E--------------------------------9------9------6-----6---|

e-------------------------------------------------|
B-------------------------------------------------|
G--10----10----13----13----9----9----12----12/13--|
D--10----10----13----13----9----9----12----12/13--| 2x
A---8-----8----11----11----7----7----10----10/11--|
E-------------------------------------------------|

e----------------------------------------|
B----------------------------------------|
G--10-10-----10-10-----------------------|
D--10-10-----10-10-----11-11-----8--8----| x3
A---8--8------8--8-----11-11-----8--8----|
E-----------------------9--9-----6--6----|

e-----------------------------------------------|
B-----------------------------------------------|
G---10-10------10-10----------------------------|
D---10-10------10-10-------11-11-------------8--|
A----8--8-------8--8-------11-11-------------8--|
E---------------------------9--9-------------6--|

           I could'vebeensum1 insteadoffallinflat upon my

e-----------------------------------------------------------------------|
B-----------------------------------------------------------------------|
G---10------10-------13-------13--------9-------9--------12--------12---|
D---10------10-------13-------13--------9-------9--------12--------12---|
A----8-------8-------11-------11--------7-------7--------10--------10---|
E-----------------------------------------------------------------------|

    ass              dig      me now                    fuck       me

e-----------------------------------------------------------------|
B-----------------------------------------------------------------|
G---10------10-------13--------13------9--------------------------|
D---10------10-------13--------13------9--------------------------|
A----8-------8-------11--------11------7--------------------------|
E-----------------------------------------------------------------|

 later          and sing it    to the tune of faggot faggot faggot

e-------------------------------------------------------------------|
B-------------------------------------------------------------------|
G--10------10-------13-------13-------9-------9-------12-------12---|
D--10------10-------13-------13-------9-------9-------12-------12---|
A---8-------8-------11-------11-------7-------7-------10-------10---|
E-------------------------------------------------------------------|

   ow              dig       me now                  fuck      me

e------------------------------------------------------------------|
B------------------------------------------------------------------|
G--10------10-------13-------13-------9-------9-------9-------9----|
D--10------10-------13-------13-------9-------9-------9-------9----|
A---8-------8-------11-------11-------7-------7-------7-------7----|
E------------------------------------------------------------------|

 later          and sing it with the

e----------------------------------------------------------------------|
B----------------------------------------------------------------------|
G---8------------8/10-10-----------10----------------------------------|
D---8------------8/10-10-----------10--9--9--------9-9-9---9---9---9---|
A---6------------6/-8--8------------9--9--9--------9-9-9---9---9---9---|
E--------------------------------------7--7--------7-7-7---7---7---7---|

    I've been denied       all the best       ultrasex

e---------------------------------------------------------|
B---------------------------------------------------------|
G---8------------8/10-10----------10----------------------|
D---8------------8/10-10----------10--9--9----------9-9-9-|
A---6------------6/-8--8-----------9--9--9----------9-9-9-|
E-------------------------------------7--7----------7-7-7-|

 I've been denied      all the best         ultrasex

e------------------------------------------------|
B------------------------------------------------|
G---10-10-------10-10----------------------------|
D---10-10-------10-10-------11-11--------8--8----| 4x
A----8--8--------8--8-------11-11--------8--8----|
E----------------------------9--9--------6--6----|

Mo-LEST                    Faggot Faggot Faggot Faggot!

Please rate and send questions/comments to qpofthc@gmail.com
comments
We did not receive enough feedback on this tab! Please rate:
print report bad tab
1 2 3 4 5
I want to post or [tab]
guest
You may want to rate the tab now too:
select rating
Please do not post tabs as comments. Select "correction" instead!