Oops, an error
Loading. Please wait.

Get It Up Bass Tab

version 1
version 1

Whole song

5,176 views 6 this week
no commentswrite comment
1 2 3 4 5
x 6
add to favorites
launch autoscroll
font size
0
reset
guitar tuner
Autoscroll
slow
fast
+/-
esc
set tempo
stop
Help us to improve Ultimate-Guitar.com Take our survey!
×
Author
Difficulty
novice
Get It Up- Mindless Self Indulgence (Bass tab)
Tuning- Standard
----------------------------------------------

G|---------------------------------------------------|
D|---------------------------------------------------|
A|-5555-----8888-5-4---------------------------------|
E|------5-4------------------------------------------| (x 8)

G|----------------------------------------------------|
D|----------------------------------------------------|
A|-55-5--5---5/88-8-8/4-------------------------------| (x2)
E|---------5------------------------------------------|
( ^^ Not to sure about this section but I made an attempt)

G|----------------------------------------------------|
D|----------------------------------------------------|
A|-5555--8888-----------------------------------------|(x2)
E|----------------------------------------------------|


**Basically you play in this order 3 times**

There are a few parts where the bass drops out but just listen to the song to see where 
are.
Listen to the song, its pretty obvious which part goes where.


TAB written by Louise O'Donnel/Loubot123
Suggest correction
comments
print report bad tab
guest
You may want to rate the tab now too:
select rating
Wanna post a correction for this tab? Suggest correction