Oops, an error
Loading. Please wait.

Kill The Rock Bass Tab

1,209 views 1 this week
no commentswrite comment
1 2 3 4 5
please rate
add to favorites
launch autoscroll
font size
0
reset
guitar tuner
Autoscroll
slow
fast
+/-
esc
set tempo
stop
Help us to improve Ultimate-Guitar.com Take our survey!
×
Author
Difficulty
novice
mindless self indulgence- kill the rock
tabbed by: rainbow_rawr
rainbow_rawr@live.co.uk
www.myspace.com/scream_out_in_despair


Verse:

G|-------------------------------------------------|
D|-------------------------------------------------|
A|-------------------------------------------------|
D|7====/15====10--8787--11====---------------------|

Pre Chorus:

G|-------------------------------------------------|
D|-------------------------------------------------|
A|-------------------------------------------------|
D|7=======--7--------------------------------------|

Chorus:

G|-------------------------------------------------|
D|-------------------------------------------------|
A|-------------------------------------------------|
D|7777-5555-2222-5555------------------------------|

Bridge 1:

G|-------------------------------------------------|
D|-------------------------------------------------|
A|----------3--------------------------------------|
D|7=======33-33-4=======---------------------------|

Bridge 2:

G|-------------------------------------------------|
D|-------------------------------------------------|
A|-------------------------------------------------|
D|8---9-------------2---4--------------------------|

Verse                                 x2
Pre Chorus                            x2
Chorus                                x1
Verse                                 x2
Pre Chorus                            x2
Chorus                                x1
Bridge 1                              x2
Bridge 2                              x4
Verse                                 x2
Pre Chorus                            x2
Chorus                                x1
Bridge 1                              x2


OKay it's not that accurate but , hey give me a brake people! x
Suggest correction
Give kudos to tab author, rate the tab!
1 2 3 4 5
comments
print report bad tab
guest
You may want to rate the tab now too:
select rating
Please do not post tabs as comments. Select "correction" instead!