Oops, an error
Loading. Please wait.

Lights Out Bass Tab

version 1
version 1

Whole song

Interactive

6,571 views 18 this week
no commentswrite comment
1 2 3 4 5
please rate
add to favorites
launch autoscroll
font size
0
reset
guitar tuner
Autoscroll
slow
fast
+/-
esc
set tempo
stop
Help us to improve Ultimate-Guitar.com Take our survey!
×
Author
-------------------------------------------------------------------------------
			     Lights Out - Mindless Self Indulgence
-------------------------------------------------------------------------------

Tabbed By : Mark Skinner (fs1)
e-mail: fs_1_1st@hotmail.com (feel free to send requests)

Tuning:Standard G,D,A,E

Intro:
G|----------------------------------------------------------------|
D|----------------------------------------------------------------|
A|----------------------------------------------------------------|
E|-7-777777-55555555-88888888-22222222-77777777-55555555-88888888-|

Verse:
-10- not -1-0------------------------------------------------------|
G|-----------------------------------------------------------------|
D|-----------------------------------------------------------------|
A|-------------------10-9-99-910-9-10-9-10-------------------------|
E|-7-77-79-10-1010-10----------------------------------------------|

G|----------------------------------------------------------------|
D|----------------------------------------------------------------|
A|-------------------10-------------------------------------------|
E|-7-77-79-10-1010-10---2-22-22-2-22-22---------------------------|

Chorus:
G|----------------------------------------------------------------|
D|----------------------------------------------------------------|
A|----2--1-------2--1-------2--1-------2-2-2-2--------------------|
E|-0-------2--0-------2--0-------2--0----------2-2-2-2------------|

G|----------------------------------------------------------------|
D|----------------------------------------------------------------|
A|---10-9---------------------------------------------------------|
E|-7--------------------------------------------------------------|

Verse

Chorus

Parts before end:
G|----------------------------------------------------------------|
D|----------------------------------------------------------------|
A|------------------------2-2-2-2---------------------------------|
E|-0--2-2-2-2-2-2-2-2--0----------2-2-2-2-------------------------|

G|----------------------------------------------------------------|
D|----------------------------------------------------------------|
A|-2--0--3-----2--0--3~----2--0--3-----2--0--3-33-----------------|
E|----------2-----------------------2-----------------------------|

G|----------------------------------------------------------------|
D|----------------------------------------------------------------|
A|-222222-000000-333333--------222222-000000-3-3-3----------------|
E|----------------------222222------------------------------------|

G|----------------------------------------------------------------|
D|----------------------------------------------------------------|
A|-2/9-2/9-2/9-2/9------------------------------------------------|
E|----------------------------------------------------------------|

Chorus

End:
G|----------------------------------------------------------------|
D|----------------------------------------------------------------|
A|----2-2-2-2------2-2-2-2----------------------------------------|
E|-0------------0----------2-2-2-2--------------------------------|

That's it, enjoy!

| /  slide up
| \  slide down
| h  hammer-on
| p  pull-off
| ~  vibrato
| +  harmonic
| x  Mute note
===============================================================================
Suggest correction
Give kudos to tab author, rate the tab!
1 2 3 4 5
comments
print report bad tab
guest
You may want to rate the tab now too:
select rating
Please do not post tabs as comments. Select "correction" instead!