Oops, an error
Loading. Please wait.

Lights Out Tab

version 1
version 1

Whole song

Interactive

5,519 views 12 this week
no commentswrite comment
1 2 3 4 5
excellent!
x 5
add to favorites
launch autoscroll
font size
0
reset
how to read this tab
guitar tuner
Tab Pro tools
  • play this tab
  • loop segment
  • change instrument
  • show fretboard
  • metronome
×
Best way to learn
"Lights Out"
Autoscroll
slow
fast
+/-
esc
set tempo
stop
Contributor
Difficulty
Tuning
novice
D G C F A D
Tuning: DADGBE

INTRO *Bass transcribed for guitar*

e|-------------------------------------------------------------------|
B|-------------------------------------------------------------------|
G|-------------------------------------------------------------------|
D|-------------------------------------------------------------------|
A|-2-2222-1-0-0000003-333333--------2-2222-1-0-0000003-333333--------|
D|--------------------------4-444444-------------------------4-------|

VERSE

e|-----------------------------------------------|
B|-----------------------------------------------|
G|-4-44-46-7-77-7(12)-(11)-1111-1111-11-12-11-12-|
D|-4-44-46-7-77-7(12)-(11)-1111-1111-11-12-11-12-|
A|-2-22-24-5-55-5(10)---9---9-9--9-9--9-10--9-10-|
D|-----------------------------------------------|
1. Who the hell said any of you get a taste (stupid)
2. And nothing you could ever do can me me go away (fake it)

e|-----------------------------------|
B|-----------------------------------|
G|-4-44-45-7-77-7--------------------|
D|-4-44-45-7-77-7-5-4-44-44-44444444-|
A|-2-22-24-5-55-5-5-4-44-44-44444444-|
D|----------------5-4-44-44-44444444-|
1. Do you ever wanna get up all in your face? (You'd better take it)
2. Poor baby I'm gonna make it all ok (p-p-p-p-p-p-p-p-)

CHORUS ***NOTE*** This could be strummed but I think you strike each chord once

e|---------------------------------|
B|---------------------------------|
G|-----------------4-------3-------|
D|-2---------------4-------3---4---|
A|-2---------------2-------1---4---|
D|-2---------------------------4---|
Punch you lights out hit the pavement that's what I call entertainment
Causing problems makes your famous all the violence makes a statment
Punch your light out hit the pavement that's what I call entertainment

e|---------------------------------|
B|---------------------------------|
G|-----------------4-4-4-4-3-3-3-3-|
D|-2---------------4-4-4-4-3-3-3-3-|
A|-2---------------2-2-2-2-1-1-1-1-|
D|-2-------------------------------|
Causing problems makes you famous all this violence makes a statement

POST CHORUS

e|----------------|
B|----------------|
G|-----12---11----|
D|-4---12---11----|
A|-4---10---9-----|
D|-4--------------|

She better get with the club

VERSE
CHORUS

BRIDGE
e|---------------------------------------------------------|
B|---------------------------------------------------------|
G|-----------------------------------------4-4-------------|
D|-2---------------4-4-4-4-2---------------4-4-4-4---------|
A|-2---------------4-4-4-4-2---------------2-2-4-4---------|
D|-2---------------4-4-4-4-2-------------------4-4---------|
All this violence makes a statement

INTERLUDE
e|---------------------------------|
B|---------------------------------|
G|-12------------------------------|
D|---------------------------------|
A|-10------------------------------|
D|---------------------------------|

e|----------------------|
B|----------------------|
G|-(12)12121212---12-10-|
D|----------------------|
A|-(10)10101010---10--9-|
D|----------------------|

e|--------------------------------|
B|--------------------------------|
G|-444444--222222--555555---------|
D|-444444--222222--555555--444444-|
A|-222222--000000--333333--444444-|
D|-------------------------444444-|X2

e|---------------------------------|
B|---------------------------------|
G|-4---------------4---------------|
D|-4-------4-------4-------4-------|
A|-2-------4-------2-------4-------|
D|---------4---------------4-------|
Punch your lights out. That's what I call entertainment
Punch your lights out

CHORUS
BRIDGE


I'd like to think this is perfect. If you wanna play in standard tuning simply play the 
on the E string two frets lower - Example

e|---|        |---|
B|---|        |---|
G|---|        |---|
D|-4-| becomes|-4-|
A|-4-|        |-4-|
D|-4-|        |-2-|

I didn't realise that standard tuning is possible with this song. When playing MSI I 
assume Drop D

Anyways; enjoy!
comments
print report bad tab
I want to post or [tab]
guest
You may want to rate the tab now too:
select rating
Please do not post tabs as comments. Select "correction" instead!