Oops, an error
Loading. Please wait.

Mastermind Bass Tab

version 1
version 1

Whole song

Interactive

2,440 views 6 this week
no commentswrite comment
1 2 3 4 5
3 more votes to show rating
add to favorites
launch autoscroll
font size
0
reset
guitar tuner
Autoscroll
slow
fast
+/-
esc
set tempo
stop
Help us to improve Ultimate-Guitar.com Take our survey!
×
Author
Difficulty
Tuning
novice
D A D G B E
     Intro		Verse
G--------------|------------------|
D--------------|------------------|
A--------------|--4-4-4-----------|
D----4-4-4-----|---------7-6-8----|

Chorus
G---------------------------------|
D---------------------------------|
A---------------------------------|
D----4---7---2---4-5--------------|

Verse 2
(Normal verse, but then :)
G-----------------------------------------|
D-----------------------------------------|
A-----------------------------------------|
D----4---4-4-4-----7--77-7----0---0-0-----|

Verse
Chorus
Verse 2
Interlude: low D---4---------------4-4------------| (sort of like the verse)

Interlude 2:
G------------------------------------|
D------------------------------------|
A--------4----------------5-4--------|
D-----4----4-4-4-4---4---------------|

Verse
Chorus
Verse 2
Suggest correction
Give kudos to tab author, rate the tab!
1 2 3 4 5
comments
print report bad tab
guest
You may want to rate the tab now too:
select rating
Wanna post a correction for this tab? Suggest correction