Oops, an error
Loading. Please wait.

Mastermind Tab

version 1
version 1

Whole song

2,478 views 3 this week
no commentswrite comment
1 2 3 4 5
excellent!
x 5
add to favorites
launch autoscroll
font size
0
reset
how to read this tab
guitar tuner
Autoscroll
slow
fast
+/-
esc
set tempo
stop
Help us to improve Ultimate-Guitar.com Take our survey!
×
Difficulty
Tuning
novice
D A D G B E
Song: Mastermind
Artist: Mindless Self Indulgence
Album: IF
Tuning: Drop D

Tabbed by: Gabe Smith

Ok, this is my first tab. It was fairly easy to tab and I'm almost positive it's right.

Intro is bass only.

Verse
-----------------------------------------------------------------|
-----------------------------------------------------------------|
-----------------------------------------------------------------|
---4---------4---------4-----------------------------------------|
---4---------4---------4-----------------------------------------|
---4---------4---------4-----------------------------------------|

Chorus
--------------------------------------------------------------|
--------------------------------------------------------------|
--------------------------------------------------------------|
---4-----------7----------2----------5------------------------|
---4---x8------7---x3-----2---x3-----5---x2-------------------|
---4-----------7----------2----------5------------------------|

Pre-verse
------------------------------------------------------------|
------------------------------------------------------------|
------------------------------------------------------------|
---4------0-------------------------------------------------|
---4------0-------------------------------------------------|
---4------0-------------------------------------------------|

Bridge
---------------------------------------------------------------|
---------------------------------------------------------------|
---------------------------------------------------------------|
---4----4----4----4--------------------------------------------|
---4----4----4----4--------------------------------------------|
---4----4----4----4--------------------------------------------|


Intro
Versex2
Chorusx4
Pre-verse
Versex2
Chorusx4
Pre-verse
Bridge
Versex2
Chorusx4
Pre-verse


Be sure to pre-order MSI's new album "IF". In stores APR29. www.mindlessselfindulgence.com
Suggest correction
comments
print report bad tab
guest
You may want to rate the tab now too:
select rating
Wanna post a correction for this tab? Suggest correction