Oops, an error
Loading. Please wait.

Molly Live Bass Tab

version 1
version 1

Whole song

Interactive

2,052 views 1 this week
no commentswrite comment
1 2 3 4 5
accurate
x 3
add to favorites
launch autoscroll
font size
0
reset
guitar tuner
Tab Pro tools
  • play this tab
  • loop segment
  • change instrument
  • show fretboard
  • metronome
Autoscroll
slow
fast
+/-
esc
set tempo
stop
Contributor
Difficulty
novice
Band: Mindless Self Indulgence
Song: Molly
Album: Alienating Our Audience
Tabber: iAmVincent

Fill
G|-----|
D|-----|
A|-----|
E|-----|

Intro
G|-------------|
D|-------------|
A|-------------|
E|-3--3--3-/-9-|

Verse
G|-------------------|
D|-------------------|
A|-------------------|
E|-3---5---6---9--9--|

Pre-Chorus
G|------|--------|
D|------|--------|
A|------|-1------|
E|-3--3-|----1---|
         ^^^^^^^^
         Don't play the last time

Chorus
G|-----------------------|
D|-----------------------|
A|-------4---3--3-3--4---|
E|-3--3------------------|

Bridge A
G|--------------------------------------|
D|--------------------------------------|
A|--------------------------------------|
E|-3--3---3---3----3--3---3---3---X-X-X-|

Bridge B
G|--------------|
D|--------------|
A|--------------|
E|-3--3---------|

Bridge C
G|-------------------------------------------------------|
D|-------------------------------------------------------|
A|-------------------------------------------------------|
E|-3--X-X-X-X-3--3--X-X-X-X-3--3--X-X-3--X-X-3--3--3--3--|

Outro
G|-------------|
D|-------------|
A|-------------|
E|-3-----------|

End
G|---|
D|---|
A|---|
E|-3-|

SONG ORDER
Fill
Intro x4
Verse x2
Pre-Chorus x3
Chorus x4
Bridge A
Pre-Chorus x3
Chorus x4
Bridge B x2
Bridge C
Pre-Chorus x3
Fill
Chorus x4
Outro x2
End

If you have any questions, feel free to email me at iAmVincent2@yahoo.com
comments
We did not receive enough feedback on this tab! Please rate:
print report bad tab
1 2 3 4 5
I want to post or [tab]
guest
You may want to rate the tab now too:
select rating
Please do not post tabs as comments. Select "correction" instead!