Oops, an error
Loading. Please wait.

Molly Live Tab

version 1
version 1

Whole song

Interactive

1,849 views 3 this week
no commentswrite comment
1 2 3 4 5
please rate
add to favorites
launch autoscroll
font size
0
reset
how to read this tab
guitar tuner
Autoscroll
slow
fast
+/-
esc
set tempo
stop
Help us to improve Ultimate-Guitar.com Take our survey!
×
Contributor
Difficulty
novice
Band: Mindless Self Indulgence
Song: Molly
Album: Alienating Our Audience
Tabber: iAmVincent

Fill (Arranged for Guitar)
e|----------------|
B|-------14-------|
G|-12h13-----0----|
D|----------------|
A|----------------|
E|----------------|

Intro
e|--------------|
B|--------------|
G|-----------6--|
D|-5-----5-6----|
A|-5--5---------|
E|-3--3---------|

Verse A/Outro
e|---------|
B|---------|
G|---------|
D|-----5---|
A|---5---5-|
E|-3-------|
 PM.......

Verse B
e|----------------------------------|
B|----------------------------------|
G|----------------------------------|
D|----------------------------------|
A|----------------------------------|
E|-3-3-3-3-5-5-5-5-6-6-6-6-10\9-9-9-|
 PM................................

Pre-Chorus
e|-----------------|
B|-----------------|
G|-----------------|
D|-5--5------------|
A|-5--5------------|
E|-3--3------------|

Chorus
e|------------------------|
B|------------------------|
G|-------6---5--5-5--6----|
D|-5--5--6---5--5-5--6----|
A|-5--5--4---3--3-3--4----|
E|-3--3-------------------|

Bridge A
e|----------------------------------|
B|----------------------------------|
G|----------------------------------|
D|-5--5----------5--5---------X-X-X-|
A|-5--5----------5--5---------X-X-X-|
E|-3--3--3--3----3--3--3--3---X-X-X-|

Bridge B
e|-----------------|
B|-----------------|
G|-----------------|
D|-----------------|
A|-----------------|
E|-3--3------------|

Bridge C
e|-------------------------------------------------------|
B|-------------------------------------------------------|
G|-------------------------------------------------------|
D|----X-X-X-X-------X-X-X-X-------X-X----X-X-------------|
A|----X-X-X-X-------X-X-X-X-------X-X----X-X-------------|
E|-3--X-X-X-X-3--3--X-X-X-X-3--3--X-X-3--X-X-3--3--3--3--|

End
e|---|
B|---|
G|---|
D|-5-|
A|-5-|
E|-3-|

SONG ORDER
Fill
Intro x4
Verse A x4
Verse B
Pre-Chorus x3
Chorus x4
Bridge A
Pre-Chorus x3
Chorus x4
Bridge B x2
Bridge C
Pre-Chorus x3
Fill
Chorus x4
Outro x8
End

If you have any questions, feel free to email me at iAmVincent2@yahoo.com
comments
We did not receive enough feedback on this tab! Please rate:
print report bad tab
1 2 3 4 5
I want to post or [tab]
guest
You may want to rate the tab now too:
select rating
Please do not post tabs as comments. Select "correction" instead!