Oops, an error
Loading. Please wait.

Molly Tab

version 1
version 1

Whole song

  • The album version of Molly. The site only has a live version.

Interactive

19 views 1 this week
no commentswrite comment
1 2 3 4 5
3 more votes to show rating
add to favorites
launch autoscroll
font size
0
reset
how to read this tab
guitar tuner
Autoscroll
slow
fast
+/-
esc
set tempo
stop
Help us to improve Ultimate-Guitar.com Take our survey!
×
Author
Difficulty
novice
About this tab version
The album version of Molly. The site only has a live version. Was this info helpful? Yes No
[Intro]

e|-----------------|
B|-----------------|
G|-------------6~~-|
D|-5~~-5~~-5-6-----|
A|-5~~-5~~---------|
E|-3~~-3~~---------|(x4)


[Verse]

PM-----------------|
e|-----------------|
B|-----------------|
G|-----------------|
D|-5-5-5-5-7-7-7-7-|
A|-5-5-5-5-7-7-7-7-|
E|-3-3-3-3-5-5-5-5-|

PM-----------------|
e|-----------------|
B|-----------------|
G|---------5-5-5-5-|
D|-8-8-8-8-5-5-5-5-|
A|-8-8-8-8-3-3-3-3-|
E|-6-6-6-6---------|


[Pre-Chorus]

e|-----------------|  |
B|-----------------|  |
G|-----------------|  |
D|-5---5-----------|  |
A|-5---5-----------|  |
E|-3---3-----------|  |
                      |(x3)
e|-----------------|  |
B|-----------------|  |
G|-----------------|  |
D|-----------------|  |
A|-----------------|  |
E|-----------------|  |


[Chorus]

e|-----------------|  |
B|-----------------|  |
G|---------6~~-6~~-|  |
D|-5~~-5---6~~-6~~-|  |
A|-5~~-5---4~~-4~~-|  |
E|-3~~-3-----------|  |
                      |(x3)
e|-----------------|  |
B|-----------------|  |
G|-5~~-5~~-5~~-6~~-|  |
D|-5~~-5~~-5~~-6~~-|  |
A|-3~~-3~~-3~~-4~~-|  |
E|-----------------|  |


[Bridge]

e|-----------------|
B|-----------------|
G|-----------------|
D|-5-------5---5---|
A|-5-------5---5---|
E|-3-------3---3---|

e|-----------------|
B|-----------------|
G|-----------------|
D|-5---5-----5-----|
A|-5---5-----5-----|
E|-3---3-----3-----|

e|-----------------|
B|-----------------|
G|-----------------|
D|-5---5---5---5---|
A|-5---5---5---5---|
E|-3---3---3---3---|



************************************

| ~  Vibrato

************************************
Suggest correction
Give kudos to tab author, rate the tab!
1 2 3 4 5
comments
print report bad tab
guest
You may want to rate the tab now too:
select rating
Wanna post a correction for this tab? Suggest correction