Oops, an error
Loading. Please wait.

Money Tab

version 1
version 1

Whole song

1,902 views 1 this week
no commentswrite comment
1 2 3 4 5
please rate
add to favorites
launch autoscroll
font size
0
reset
how to read this tab
guitar tuner
Autoscroll
slow
fast
+/-
esc
set tempo
stop
Help us to improve Ultimate-Guitar.com Take our survey!
×
Contributor
Difficulty
Tuning
novice
D A D G B E
Tuning: DADGBE


e|------x---------------------------------|
B|------x---------------------------------|
G|------x---------------------------------|
D|7-7-7-x5-5-555556-3-3-3/10-10-1010101010|
A|7-7-7-x5-5-555556-3-3-3/10-10-1010101010|
D|7-7-7-x5-5-555556-3-3-3/10-10-1010101010|
I'm so money; so money oh baby


e|--------------------------------|
B|--------------------------------|
G|--------------------------------|
D|----7-------7-------7-------7---|
A|----7-------7-------7-------7---|
D|----7-------7-------7-------7---|
(hey) I will conform (hey) I will play ball


e|------------------|
B|------------------|
G|------------------|
D|10-10-10---77-7---|
A|10-10-10---77-7---|
D|10-10-10---77-7---|
(A we oh we oh) Baby doll


(0:54) ***NOTE*** I believe that this also has the bass in it. this would make sense; as 
find it quite tricky to play. I tabbed the alternative; which is right underneath, 
I believe is just the guitar without bass ;)
e|-----------------------------------|
B|-----------------------------------|
G|-----------------------------------|
D|10--------7-------10-------7-------|
A|10---10-8-7---0-8-10---0-8-7-5-7-0-|
D|10--------7-------10-------7-------|
 |
 |alternative
e|----------------------------------|
B|----------------------------------|
G|----------------------------------|
D|10-------7-------10-------7-------|
A|10-------7-------10-------7-------|
D|10-------7-------10-------7-------|


e|-----------------------------------|
B|-----------------------------------|
G|-----------------------------------|
D|77-77----77-77--77-7--10---10---10-|
A|77-77----77-77--77-7--10---10---10-|
D|77-77----77-77--77-7--10---10---10-|
daddy wants a new racket new hard new core

*bass solo - guitar*
e|----------------------------------------|
B|----------------------------------------|
G|----------------------------------------|
D|7-7-7-7-7-7-7-7-12-12-12-12-10-10-10-10-|
A|7-7-7-7-7-7-7-7-12-12-12-12-10-10-10-10-|
D|7-7-7-7-7-7-7-7-12-12-12-12-10-10-10-10-|


e|----------------------------------------|
B|----------------------------------------|
G|----------------------------------------|
D|8-8-8-8-8-8-8-8-10-10-10-10-10-12-12-12-|
A|8-8-8-8-8-8-8-8-12-12-12-12-12-12-12-12-|
D|8-8-8-8-8-8-8-8-12-12-12-12-12-12-12-12-|

*bass solo - bass (for guitar)*

e|--------------------------------|
B|--------------------------------|
G|--------------------------------|
D|----------------3-2---0-5-3-2---|
A|0-2-3-5-3-2-3-------------------|
D|--------------------------------|


e|--------------------------------|
B|--------------------------------|
G|--------------------------------|
D|----------------3-2---0-5-3-2---|
A|--------------------------------|
D|--------------------------------|


Another successful Mindless Self Indulgence tab; Fred......... wait who's Fred

ANYWAYS; hope you like ;)
Suggest correction What's this?
You can suggest a correction to this tab. Community and Mods will review your correction and vote to approve or reject it.
comments
We did not receive enough feedback on this tab! Please rate:
print report bad tab
1 2 3 4 5
I want to post or [tab]
guest
You may want to rate the tab now too:
select rating
Please do not post tabs as comments. Select "correction" instead!