Oops, an error
Loading. Please wait.

Never Wanted To Dance Bass Tab

version 1
version 1

Whole song

Interactive

20,990 views 24 this week
7 commentsread comments
1 2 3 4 5
excellent!
x 23
add to favorites
launch autoscroll
font size
0
reset
guitar tuner
Tab Pro tools
  • play this tab
  • loop segment
  • change instrument
  • show fretboard
  • metronome
×
Best way to learn
"Never Wanted To Dance"
Autoscroll
slow
fast
+/-
esc
set tempo
stop
Contributor
This is my interpretation of Never Wanted To Dance by Mindless Self Indulgence.
I used live footage and the actual song itself to work this out, and I'm pretty
sure it's 99.9% right.

This is my first tab ever, so go easy on me ;)

Standard tuning.

INTRO
G|-----------------------------|
D|-----------------------------|
A|---------------555555-222222-|  (x2)
E|-222222-555555---------------|

G|------------------------|
D|------------------------|
A|---------------555555-2-|
E|-222222-555555----------|

CHORUS
G|-----------------|
D|-----------------|
A|---------------5-|  (x2)
E|-222222-555555---|

G|-----------------------|
D|-----------------------|
A|---------------5-5-2-2-|
E|-222222-555555---------|

(Bass doesn't play here)

BRIDGE
G|-----------------------------------------|
D|-----------------------------------------|
A|-----------------------------------------|  
E|-222h5p2-(x6)-00-22h5p2-(x3)-00-00-00-00-|

Then back to INTRO
G|-----------------------------|
D|-----------------------------|
A|---------------555555-222222-|  (x2)
E|-222222-555555---------------|

G|------------------------|
D|------------------------|
A|---------------555555-2-|
E|-222222-555555----------|

CHORUS
G|-----------------|
D|-----------------|
A|---------------5-|  (x2)
E|-222222-555555---|

G|-----------------------|
D|-----------------------|
A|---------------5-5-2-2-|
E|-222222-555555---------|

(Bass doesn't play here)

BRIDGE
G|-------------------------------------------|
D|-------------------------------------------|
A|-------------------------------------------|  
E|-222h5p2-(x6)-00-22h5p2-(x3)-00-00-00-00-0-|

CHORUS
G|-----------------|
D|-----------------|
A|---------------5-|  (x2)
E|-222222-555555---|

G|-----------------------|
D|-----------------------|
A|---------------5-5-2-2-|
E|-222222-555555---------|
comments
print report bad tab
7 comments total. Showing first comments.
0 reply
razor132 wrote on May 1 2008, 10:34 pm

nice tab

0 reply
ravenouscabbage wrote on June 8 2008, 03:09 pm

cool

0 reply
piggyboy wrote on November 7 2008, 03:40 pm

Dunno why this only has 3 stars, can't see anything wrong with it! Nice job =)

I want to post or [tab]
guest
You may want to rate the tab now too:
select rating
Please do not post tabs as comments. Select "correction" instead!