Oops, an error
Loading. Please wait.

Never Wanted To Dance Tab

version 1
version 1

Whole song

Interactive

36,391 views 15 this week
8 commentsread comments
1 2 3 4 5
excellent!
x 37
add to favorites
launch autoscroll
font size
0
reset
how to read this tab
guitar tuner
Tab Pro tools
  • play this tab
  • loop segment
  • change instrument
  • show fretboard
  • metronome
×
Best way to learn
"Never Wanted To Dance"
Autoscroll
slow
fast
+/-
esc
set tempo
stop
Contributor
Difficulty
novice
Artist: Mindless Self Indulgence
Song: Never Wanted To Dance
Album: If
Tabbed by: jonbucholz

I tabbed the song out completely in order. I'm pretty damn sure this is 100% correct. 
rate if you found this tab useful.

/=slide

e-----------------------------|
b-----------------------------|
g--------222222-777777-444444-| (x2)
d-444444-222222-777777-444444-|
a-444444-000000-555555-222222-|
E-222222----------------------|

e----------------------|
b----------------------|
g--------222222-777777-|
d-444444-222222-777777-|
a-444444-000000-555555-|
E-222222---------------|

e----------------------------|
b----------------------------|
g--------222222-777777777777-| (x2)
d-444444-222222-777777777777-|
a-444444-000000-555555555555-|
E-222222---------------------|

e-----------------------|
b-----------------------|
g--------222222-7-7-4-4-|
d-444444-222222-7-7-4-4-|
a-444444-000000-5-5-2-2-|
E-222222----------------|

e-----------------------------------|
b-----------------------------------|
g-1111-1111-1111-9-777-77-1010-1010-| (x3)
d-1111-1111-1111-9-777-77-1010-1010-|
a-9-9--9-9--9-9--7-555-55-8-8--8-8--|
E-----------------------------------|

e------------------------------------|
b------------------------------------|
g------------------------------------| (x3)
d-4444--7--4--4444--7--4--4444--7--4-|
a-4444-/7-/4--4444-/7-/4--4444-/7-/4-|
E-2222--5--2--2222--5--2--2222--5--2-|

e-----------------------------|
b-----------------------------|
g--------222222-777777-444444-| (x2)
d-444444-222222-777777-444444-|
a-444444-000000-555555-222222-|
E-222222----------------------|

e----------------------|
b----------------------|
g--------222222-777777-|
d-444444-222222-777777-|
a-444444-000000-555555-|
E-222222---------------|

e----------------------------|
b----------------------------|
g--------222222-777777777777-| (x2)
d-444444-222222-777777777777-|
a-444444-000000-555555555555-|
E-222222---------------------|

e-----------------------|
b-----------------------|
g--------222222-7-7-4-4-|
d-444444-222222-7-7-4-4-|
a-444444-000000-5-5-2-2-|
E-222222----------------|

e-----------------------------------|
b-----------------------------------|
g-1111-1111-1111-9-777-77-1010-1010-| (x3)
d-1111-1111-1111-9-777-77-1010-1010-|
a-9-9--9-9--9-9--7-555-55-8-8--8-8--|
E-----------------------------------|

e------------------------------------|
b------------------------------------|
g------------------------------------| (x3)
d-4444--7--4--4444--7--4--4444--7--4-|
a-4444-/7-/4--4444-/7-/4--4444-/7-/4-|
E-2222--5--2--2222--5--2--2222--5--2-|

e-----------------------------|
b-----------------------------|
g--------222222-777777-444444-| (x2)
d-444444-222222-777777-444444-|
a-444444-000000-555555-222222-|
E-222222----------------------|

e-------------------------|
b-------------------------|
g-------------77----------| (x2)
d-44----------77----------|
a-44-----0000-55-555-2222-|
E-22-222------------------|

e---------------|
b---------------|
g-------------7-|
d-44----------7-|
a-44-----0000-5-|
E-22-222--------|

e----------------------------|
b----------------------------|
g--------222222-777777777777-| (x2)
d-444444-222222-777777777777-|
a-444444-000000-555555555555-|
E-222222---------------------|

e-----------------------|
b-----------------------|
g--------222222-7-7-4-4-|
d-444444-222222-7-7-4-4-|
a-444444-000000-5-5-2-2-|
E-222222----------------|

e-----------------------------------|
b-----------------------------------|
g-1111-1111-1111-9-777-77-1010-1010-| (x2)
d-1111-1111-1111-9-777-77-1010-1010-|
a-9-9--9-9--9-9--7-555-55-8-8--8-8--|
E-----------------------------------|

e------
b-1010-
g-1010-
d-1010-
a-8-8--|
E------|
comments
print report bad tab
8 comments total. Showing first comments.
+4 reply
Forsakensoul wrote on June 28 2008, 01:08 am

The very very ending, instead of:

e------
b-1010-
g-1010-
d-1010-
a-8-8--|
E------|

Its this I'm sure:

e------|
b-1111-|
g-1111-|
d-1111-|
a-9-9--|
E------|

^_^ Just a quick correction. ^_^

0 reply
jonbucholz wrote on June 30 2008, 04:36 pm

oh, jeez. thanks. didn't see that.

0 reply
X Derek 666 wrote on August 29 2008, 02:30 pm

e-----------------------------------|
b-----------------------------------|
g-1111-1111-1111-9-777-77-1010-1010-| (x3)
d-1111-1111-1111-9-777-77-1010-1010-|
a-9-9--9-9--9-9--7-555-55-8-8--8-8--|
E-----------------------------------|

I think it sould be.

e---------------------------------|
b---------------------------------|
g-1111-11-----9-7-77----1010------| (x3)
d-1111-11-----9-7-77----1010------|
a-9-9--9------7-5-55----8-8-------|
E---------------------------------|

This is what I hear from 32-37 seconds.
---------------------------------------------------------------------

And Just add this to the end of your song.

e------|
b-1111-|
g-1111-|
d-1111-|
a-9-9--|
E------|

I want to post or [tab]
guest
You may want to rate the tab now too:
select rating
Please do not post tabs as comments. Select "correction" instead!