Oops, an error
Loading. Please wait.

On It Bass Tab

version 1
version 1

Whole song

  • Bass tab for the whole song.

Interactive

22 views 3 this week
no commentswrite comment
1 2 3 4 5
3 more votes to show rating
add to favorites
launch autoscroll
font size
0
reset
guitar tuner
Autoscroll
slow
fast
+/-
esc
set tempo
stop
Help us to improve Ultimate-Guitar.com Take our survey!
×
Author
Difficulty
novice
About this tab version
Bass tab for the whole song. Was this info helpful? Yes No
[Verse]
G|---------------------------------|
D|-----------------4-4-4-4-4-4-4---|
A|-1-1-1---1-1-1-------------------|
E|---------------------------------|

G|---------------------------------|
D|-----------------4-4-4-4-4-4-4---|
A|-4-4-4-4-4-4-4-4-----------------|
E|---------------------------------|

G|---------------------------------|
D|-----------------4-4-4-4-4-4-4---|
A|-1-1-1---1-1-1-------------------|
E|---------------------------------|

G|---------------------------------|
D|-----------------4-4-4-4-4-4-4---|
A|-4-4-4-4-4-4-4-4-----------------|
E|---------------------------------|

G|---------------------------------|
D|-----------------4-4-4-4-4-4-4---|
A|-1-1-1---1-1-1-------------------|
E|---------------------------------|

G|---------------------------------|
D|-----------------4-4-4-4-4-4-4---|
A|-4-4-4-4-4-4-4-4-----------------|
E|---------------------------------|

G|---------------------------------|
D|-----------------4-4-4-4-4-4-4---|
A|-1-1-1---1-1-1-------------------|
E|---------------------------------|

G|---------------------------------|
D|-----------------4-4-4-4-4-4-4---|
A|-4-4-4-4-4-4-4-4-----------------|
E|---------------------------------|

[Chorus]
G|---------------------------------|
D|---------------------------------|
A|-1---1---1-----------------------|
E|---------------------------------|

G|---------------------------------|
D|---------------------------------|
A|-4---4---4-----------------------|
E|---------------------------------|

G|---------------------------------|
D|---------------------------------|
A|-1---1---1-----------------------|
E|---------------------------------|

G|---------------------------------|
D|---------------------------------|
A|-4---4---4-----------------------|
E|---------------------------------|

G|---------------------------------|
D|---------------------------------|
A|-1-------------------------------|
E|---------------------------------|

G|---------------------------------|
D|---------------------------------|
A|-4-------------------------------|
E|---------------------------------|

G|---------------------------------|
D|---------------------------------|
A|-1-------------------------------|
E|---------------------------------|

G|---------------------------------|
D|---------------------------------|
A|-4-------------------------------|
E|---------------------------------|

G|---------------------------------|
D|---------------------------------|
A|-1-----1-1-----------------------|
E|---------------------------------|

G|---------------------------------|
D|---------------------------------|
A|-4-----4-4-----------------------|
E|---------------------------------|

G|---------------------------------|
D|---------------------------------|
A|-1-----1-1-----------------------|
E|---------------------------------|

G|---------------------------------|
D|---------------------------------|
A|---------------------------------|
E|---------------------------------|

G|---------------------------------|
D|---------------------------------|
A|-1-----1-1-----------------------|
E|---------------------------------|

G|---------------------------------|
D|---------------------------------|
A|---------------------------------|
E|---------------------------------|

G|---------------------------------|
D|---------------------------------|
A|---------------------------------|
E|---------------------------------|

[Verse]
G|---------------------------------|
D|-----------------4-4-4-4-4-4-4---|
A|-1-1-1---1-1-1-------------------|
E|---------------------------------|

G|---------------------------------|
D|-----------------4-4-4-4-4-4-4---|
A|-4-4-4-4-4-4-4-4-----------------|
E|---------------------------------|

G|---------------------------------|
D|-----------------4-4-4-4-4-4-4---|
A|-1-1-1---1-1-1-------------------|
E|---------------------------------|

G|---------------------------------|
D|-----------------4-4-4-4-4-4-4---|
A|-4-4-4-4-4-4-4-4-----------------|
E|---------------------------------|

G|---------------------------------|
D|-----------------4-4-4-4-4-4-4---|
A|-1-1-1---1-1-1-------------------|
E|---------------------------------|

G|---------------------------------|
D|-----------------4-4-4-4-4-4-4---|
A|-4-4-4-4-4-4-4-4-----------------|
E|---------------------------------|

G|---------------------------------|
D|-----------------4-4-4-4-4-4-4---|
A|-1-1-1---1-1-1-------------------|
E|---------------------------------|

G|---------------------------------|
D|-----------------4-4-4-4-4-4-4---|
A|-4-4-4-4-4-4-4-4-----------------|
E|---------------------------------|

[Chorus]
G|---------------------------------|
D|---------------------------------|
A|-1---1---1-----------------------|
E|---------------------------------|

G|---------------------------------|
D|---------------------------------|
A|-4---4---4-----------------------|
E|---------------------------------|

G|---------------------------------|
D|---------------------------------|
A|-1---1---1-----------------------|
E|---------------------------------|

G|---------------------------------|
D|---------------------------------|
A|-4---4---4-----------------------|
E|---------------------------------|

G|---------------------------------|
D|---------------------------------|
A|-1-------------------------------|
E|---------------------------------|

G|---------------------------------|
D|---------------------------------|
A|-4-------------------------------|
E|---------------------------------|

G|---------------------------------|
D|---------------------------------|
A|-1-------------------------------|
E|---------------------------------|

G|---------------------------------|
D|---------------------------------|
A|-4-------------------------------|
E|---------------------------------|

G|---------------------------------|
D|---------------------------------|
A|-1-----1-1-----------------------|
E|---------------------------------|

G|---------------------------------|
D|---------------------------------|
A|-4-----4-4-----------------------|
E|---------------------------------|

G|---------------------------------|
D|---------------------------------|
A|-1-----1-1-----------------------|
E|---------------------------------|

G|---------------------------------|
D|---------------------------------|
A|-4-----4-4-----------------------|
E|---------------------------------|

G|---------------------------------|
D|---------------------------------|
A|-1-----1-1-----------------------|
E|---------------------------------|

G|---------------------------------|
D|---------------------------------|
A|-4-----4-4-----------------------|
E|---------------------------------|

G|---------------------------------|
D|---------------------------------|
A|-1-----1-1-----------------------|
E|---------------------------------|

G|---------------------------------|
D|---------------------------------|
A|-4-----4-4-----------------------|
E|---------------------------------|

G|---------------------------------|
D|---------------------------------|
A|-1-----1-1-----------------------|
E|---------------------------------|

G|---------------------------------|
D|---------------------------------|
A|---------------------------------|
E|---------------------------------|

G|---------------------------------|
D|---------------------------------|
A|-1-----1-1-----------------------|
E|---------------------------------|

G|---------------------------------|
D|---------------------------------|
A|---------------------------------|
E|---------------------------------|

[Bridge]
G|---------------------------------|
D|---------------------------------|
A|---------------------------------|
E|-2-------------------------------|

G|---------------------------------|
D|---------------------------------|
A|-6-------------------------------|
E|-----------------4---4---4---4---|

G|---------------------------------|
D|---------------------------------|
A|---------------------------------|
E|-2-------------------------------|

G|---------------------------------|
D|---------------------------------|
A|-6-------------------------------|
E|-----------------4---4---4---4---|

G|---------------------------------|
D|---------------------------------|
A|---------------------------------|
E|-2-------------------------------|

G|---------------------------------|
D|---------------------------------|
A|-6-------------------------------|
E|-----------------4---4---4---4---|

G|---------------------------------|
D|---------------------------------|
A|---------------------------------|
E|-2-------------------------------|

G|---------------------------------|
D|---------------------------------|
A|-6-------------------------------|
E|-----------------4---4---4---4---|

G|---------------------------------|
D|---------------------------------|
A|---------------------------------|
E|-6---6---6-----------------------|

G|---------------------------------|
D|---------------------------------|
A|---------------------------------|
E|---------------------------------|

G|---------------------------------|
D|---------------------------------|
A|---------------------------------|
E|---------------------------------|

G|---------------------------------|
D|---------------------------------|
A|---------------------------------|
E|---------------------------------|

G|---------------------------------|
D|-----------------4-4-4-4-4-4-4---|
A|-1-1-1---1-1-1-------------------|
E|---------------------------------|

G|---------------------------------|
D|-----------------4-4-4-4-4-4-4---|
A|-4-4-4-4-4-4-4-4-----------------|
E|---------------------------------|

G|---------------------------------|
D|-----------------4-4-4-4-4-4-4---|
A|-1-1-1---1-1-1-------------------|
E|---------------------------------|

G|---------------------------------|
D|-----------------4-4-4-4-4-4-4---|
A|-4-4-4-4-4-4-4-4-----------------|
E|---------------------------------|

[Chorus]
G|---------------------------------|
D|---------------------------------|
A|-1---1---1-----------------------|
E|---------------------------------|

G|---------------------------------|
D|---------------------------------|
A|-4---4---4-----------------------|
E|---------------------------------|

G|---------------------------------|
D|---------------------------------|
A|-1---1---1-----------------------|
E|---------------------------------|

G|---------------------------------|
D|---------------------------------|
A|-4---4---4-----------------------|
E|---------------------------------|

G|---------------------------------|
D|---------------------------------|
A|-1-------------------------------|
E|---------------------------------|

G|---------------------------------|
D|---------------------------------|
A|-4-------------------------------|
E|---------------------------------|

G|---------------------------------|
D|---------------------------------|
A|-1-------------------------------|
E|---------------------------------|

G|---------------------------------|
D|---------------------------------|
A|-4-------------------------------|
E|---------------------------------|

G|---------------------------------|
D|---------------------------------|
A|-1-----1-1-----------------------|
E|---------------------------------|

G|---------------------------------|
D|---------------------------------|
A|-4-----4-4-----------------------|
E|---------------------------------|

G|---------------------------------|
D|---------------------------------|
A|-1-----1-1-----------------------|
E|---------------------------------|

G|---------------------------------|
D|---------------------------------|
A|-4-----4-4-----------------------|
E|---------------------------------|

G|---------------------------------|
D|---------------------------------|
A|-1-----1-1-----------------------|
E|---------------------------------|

G|---------------------------------|
D|---------------------------------|
A|-4-----4-4-----------------------|
E|---------------------------------|

G|---------------------------------|
D|---------------------------------|
A|-1-----1-1-----------------------|
E|---------------------------------|

G|---------------------------------|
D|---------------------------------|
A|-4-----4-4-----------------------|
E|---------------------------------|

[Outro]
G|---------------------------------|
D|---------------------------------|
A|-1-----1-1-----------------------|
E|---------------------------------|

G|---------------------------------|
D|---------------------------------|
A|---------------------------------|
E|---------------------------------|

G|---------------------------------|
D|---------------------------------|
A|-1-----1-1-----------------------|
E|---------------------------------|

G|---------------------------------|
D|---------------------------------|
A|---------------------------------|
E|---------------------------------|

G|---------------------------------|
D|---------------------------------|
A|-1-----1-1-----------------------|
E|---------------------------------|
Suggest correction
Give kudos to tab author, rate the tab!
1 2 3 4 5
comments
print report bad tab
guest
You may want to rate the tab now too:
select rating
Wanna post a correction for this tab? Suggest correction