Oops, an error
Loading. Please wait.

Pay For It Bass Tab

version 1
version 1

Whole song

Interactive

1,716 views 6 this week
no commentswrite comment
1 2 3 4 5
1 last vote to show rating
add to favorites
launch autoscroll
font size
0
reset
guitar tuner
Autoscroll
slow
fast
+/-
esc
set tempo
stop
Help us to improve Ultimate-Guitar.com Take our survey!
×
Difficulty
novice
Verse A
E|-------------------------------------------------|
A|------5555---------------------------------------|
D|-3333------6666------3333------------------------|
G|-------------------------------------------------|
x8

Pre-Chorus
E|-------------------------------------------------|
A|-------------------------------------------------|
D|-------3-------3-1-------------------------------|
G|-4---3-----4-------------------------------------|
x2

Chorus
E|-----------------5---5---5----5---5---5----------|
A|----11-------------------------------------------|
D|-33--------- *33--33--33---66--33--33--33--------|
G|-------44-11-------------------------------------|
x2

*On Second Time


Verse B
E|-------------------------------------------------|
A|------5555---------------------------------------|
D|-3333------6666------3333------------------------|
G|-------------------------------------------------|
x8

Pre-Chorus
E|-------------------------------------------------|
A|-------------------------------------------------|
D|-------3-------3-1-------------------------------|
G|-4---3-----4-------------------------------------|
x2

Chorus
E|-----------------5---5---5----5---5---5----------|
A|----11-------------------------------------------|
D|-33--------- *33--33--33---66--33--33--33--------|
G|-------44-11-------------------------------------|
x2

*On Second Time

Verse C
E|-------------------------------------------------|
A|------5555---------------------------------------|
D|-3333------6666------3333------------------------|
G|-------------------------------------------------|
x5

Bridge
E|--------------------------------------------------|
A|---------------------6----------------------------|
D|-3--66--66--66--66-------666666666-----666666-----|
G|------------------------------------6-------------|
x2

Pre-Chorus
E|-------------------------------------------------|
A|-------------------------------------------------|
D|-------3-------3-1-------------------------------|
G|-4---3-----4-------------------------------------|
x2

Chorus
E|-----------------5---5---5----5---5---5----------|
A|----11-------------------------------------------|
D|-33---------**33--33--33---66--33--33--33--------|
G|--------44-11------------------------------------|
x2

*On Second Time x2
Suggest correction
Give kudos to tab author, rate the tab!
1 2 3 4 5
comments
print report bad tab
guest
You may want to rate the tab now too:
select rating
Wanna post a correction for this tab? Suggest correction