Oops, an error
Loading. Please wait.

Prescription Tab

version 1
version 1

Whole song

2,951 views 3 this week
no commentswrite comment
1 2 3 4 5
excellent!
x 3
add to favorites
launch autoscroll
font size
0
reset
how to read this tab
guitar tuner
Tab Pro tools
  • play this tab
  • loop segment
  • change instrument
  • show fretboard
  • metronome
×
Best way to learn
"Prescription"
Autoscroll
slow
fast
+/-
esc
set tempo
stop
Contributor
Difficulty
Tuning
novice
D A D G B E
Tuning: DADGBE

***NOTE*** Palm muting indicated with [.]

e|-----------------------------------------------------------------|
B|-----------------------------------------------------------------|
G|-----------------2-------------------------------8---------------|
D|-2---------------2---------------5---------------8---------------|
A|-2---------------0---------------5---------------6---------------|
D|-2-------------------------------5-------------------------------|
"I'm the doctor. I'm the patient. Don't forget that. It's important

e|--------------------|
B|--------------------|
G|-9-9999999999999999-|
D|-9-9999999999999999-|
A|-7-7777777777777777-|
D|--------------------|
"Just a little something to make me go"

e|--------------------------------------------|
B|--------------------------------------------|
G|-(12)121212121212124444444477777777---------|
D|-(12)12121212121212444444447777777755555555-|
A|-(10)10101010101010222222225555555555555555-|
D|-----------------------------------55555555-|
"you kn-kn-know what I want"

e|-----------------------------------------|
B|-----------------------------------------|
G|-----------7-7-7-----4-4-4-----4-4-4-----|
D|-5-5-5-----7-7-7-----4-4-4-----4-4-4-----|
A|-5-5-5-----5-5-5-----2-2-2-----2-2-2-----|
D|-5-5-5-----------------------------------|
"Give me more. Give me more. Pretty please; a prescription"

e|-----------------------------------|
B|-----------------------------------|
G|-2--2--2-4--4--4-------------------|
D|-2--2--2-4--4--4-4--4--4-2--2--2---|
A|-0--0--0-2--2--2-4--4--4-2--2--2---|
D|-----------------4--4--4-2--2--2---|
"------------------------------------|do d-do-do do. Ha-a-uh-ah-a-ah-oh-ah"

e|-----------------------------------------------------------------|
B|-----------------------------------------------------------------|
G|-4-4-4-4-4-4-4-4-4-4-4-4-4-4-4-4---------------------------------|
D|-4-4-4-4-4-4-4-4-4-4-4-4-4-4-4-4-5-5-5-5-5-5-5-5-5-5-5-5-5-5-5-5-|
A|-2-2-2-2-2-2-2-2-2-2-2-2-2-2-2-2-5-5-5-5-5-5-5-5-5-5-5-5-5-5-5-5-|
D|---------------------------------5-5-5-5-5-5-5-5-5-5-5-5-5-5-5-5-|
   . . . . . . . . . . . . . . . . . . . . . . . . . . . . . . . .
"I don't need nothing before the show. I don't need nothing well that's not so"

e|-----------------------------------------------------------------|
B|-----------------------------------------------------------------|
G|---------------------------------9-9-9-9-9-9-9-9-9-9-9-9-9-9-9-9-|
D|-7-7-7-7-7-7-7-7-7-7-7-7-7-7-7-7-9-9-9-9-9-9-9-9-9-9-9-9-9-9-9-9-|
A|-7-7-7-7-7-7-7-7-7-7-7-7-7-7-7-7-7-7-7-7-7-7-7-7-7-7-7-7-7-7-7-7-|
D|-7-7-7-7-7-7-7-7-7-7-7-7-7-7-7-7---------------------------------|
   . . . . . . . . . . . . . . . . . . . . . . . . . . . . . . . .
"I don't need noting before the show. I don't need nothing oh that's not so"

e|-----------------------------------------------------------------|
B|-----------------------------------------------------------------|
G|---------------------------------9-9-9-9-9-9-9-9-9-9-9-9-9-9-9-9-|
D|-7-7-7-7-7-7-7-7-7-7-7-7-7-7-7-7-9-9-9-9-9-9-9-9-9-9-9-9-9-9-9-9-|
A|-7-7-7-7-7-7-7-7-7-7-7-7-7-7-7-7-7-7-7-7-7-7-7-7-7-7-7-7-7-7-7-7-|
D|-7-7-7-7-7-7-7-7-7-7-7-7-7-7-7-7---------------------------------|
   . . . . . . . . . . . . . . . .
"I need one thing before the show. Just a little something to make me go"


Hope you like =D

I should point out that I havn't repeated any tabular once it is played again. It's not 
worth mentioning but I can see how the palm mute bit could easily confuse some people 
clarify; it is the 1st part, 2nd part, 1st part, 3rd part)


I merely choses to play this song in Drop D (as most MSI songs are). However, this can 
played in standard tuning. Simply play the note on the E string two notes lower than 
e.g.

e|---|       |---|
B|---|       |---|
G|---|       |---|
D|-7-|becomes|-7-|
A|-7-|       |-7-|
D|-7-|       |-5-|
comments
We did not receive enough feedback on this tab! Please rate:
print report bad tab
1 2 3 4 5
I want to post or [tab]
guest
You may want to rate the tab now too:
select rating
Please do not post tabs as comments. Select "correction" instead!