Oops, an error
Loading. Please wait.

Revenge Bass Tab

version 1
version 1

Whole song

Interactive

2,890 views 1 this week
1 commentread comment
1 2 3 4 5
please rate
add to favorites
launch autoscroll
font size
0
reset
guitar tuner
Autoscroll
slow
fast
+/-
esc
set tempo
stop
Help us to improve Ultimate-Guitar.com Take our survey!
×
Author
Difficulty
novice
Bass enters 0:38


CHORUS
G|---------------------------------------------------------------------------|
D|---------------------------------------------------------------------------| <----X2
A|--8-8-8-8-3-3-4-4-9-9-9-9-6-6-7-7------------------------------------------| 
E|---------------------------------------------------------------------------|


G|---------------------------------------------------------------------------|
D|---------------------------------------------------------------------------| <----x3
A|------------------6h8-8-8-8-8----------------------------------------------|
E|--6-6-6-6-4-4-4-4-------------8\-------------------------------------------|

G|---------------------------------------------------------------------------|
D|---------------------------------------------------------------------------|
A|------------------4-4-4-4-4-3-3-3------------------------------------------|
E|--6-6-6-6-4-4-4-4----------------------------------------------------------|


VERSE
G|---------------------------------------------------------------------------|
D|---------------------------------------------------------------------------|
A|---------------------------------------------------------------------------|
E|--1-1-1-----4-4-4-----1-1-1-----4-4-4-----1-1-1-----4-4-4-----1-1-1--------|

G|---------------------------------------------------------------------------|
D|---------------------------------------------------------------------------|
A|---------------------------------------------------------------------------|
E|-4-4-4---2--2---1-1-1-1-1-----4-4----4-4------2-2-2-2-2---------13/--------|

G|---------------------------------------------------------------------------|
D|---------------------------------------------------------------------------|
A|---------------------------------------------------------------------------|
E|---1-1-1-1-1-----4-4----4-4------2-2-2-2-2---------13/---------------------|


CHORUS
VERSE

BRIDGE
G|---------------------------------------------------------------------------|
D|---------------------------------------------------------------------------| <----x2
A|--8-8-876-6-6--------------------------------------------------------------|
E|---------------6-6-654-4-4-4-----------------------------------------------|

G|---------------------------------------------------------------------------|
D|---------------------------------------------------------------------------| <----X2
A|---------------------------------------------------------------------------|
E|-22222222---44444444---66666666----22222222--------------------------------|

CHORUS
BRIDGE

This is my first tab i've actually posted. i hope you like it 
Suggest correction new What's this?
You can suggest a correction to this tab. Community and Mods will review your correction and vote to approve or reject it.
comments
We did not receive enough feedback on this tab! Please rate:
print report bad tab
1 2 3 4 5
1 comment total.
0 reply
twisted_tk 11 wrote on May 31 2011, 03:48 pm

good job dude!

guest
You may want to rate the tab now too:
select rating
Please do not post tabs as comments. Select "correction" instead!