Oops, an error
Loading. Please wait.

Revenge Tab

version 1
version 1

Whole song

Interactive

2,155 views 1 this week
no commentswrite comment
1 2 3 4 5
x 3
add to favorites
launch autoscroll
font size
0
reset
how to read this tab
guitar tuner
Autoscroll
slow
fast
+/-
esc
set tempo
stop
Help us to improve Ultimate-Guitar.com Take our survey!
×
Author
Difficulty
Tuning
novice
D A D G B E
Tuning:DADGBE

***NOTE*** (.) indicates palm mute


SOLO (of sorts)
Steve Righ? doesn't play this live so if you have the Alienating Our Audience version; I 
you won't need this
e|-------------------11^------------------------11^------|
B|13-13-13-13-11--------------13-13-13-13-11-------------|
G|-------------------------------------------------------|
D|-------------------------------------------------------|
A|-------------------------------------------------------|
D|-------------------------------------------------------|

e|-------------------11^---------------------------------------|
B|13-13-13-13-11--------------------------------14---13-14\----|
G|----------------------------13-13-13-13-11-------------------|
D|-------------------------------------------------------------|
A|-------------------------------------------------------------|
D|-------------------------------------------------------------|

::intro::

e|--------------------------------|
B|--------------------------------|
G|(10)101010--------(11)1111116688|
D|(10)10101088(10)10(11)1111116688|
A|--8--8-8-888(10)10--9--9-9-94466|
D|----------88(10)10--------------|
   This             Is
   My               Re....
e|---------------------------|
B|---------------------------|
G|--------8/(10)101010101010-|
D|888866668/(10)101010101010-|
A|888866666/--8--8-8-8-8-8-8-|
D|88886666-------------------|
(...venge)
I'm a little teast
Watch what I do
Here's a little taste

e|----------------|
B|----------------|
G|--------66666666|
D|6666444466666666|
A|6666444444444444|
D|66664444--------|
Of how it's gonna be from now on

e|----------------|
B|----------------|
G|----------------|
D|3-------6-------|
A|3-------6-------|
D|3-------6-------|
Fuck me and my friends yo - my friends and me
Never special enough to make a case for Jealousy
Fuck the secret sauce, I'm Gothalicious with cheese

e|----------------|
B|----------------|
G|----------------|
D|3-------66655544|
A|3-------66655544|
D|3-------66655544|
          ........
And all the gay things I say make such a pretty melody

e|---------------------------------------------------------------|
B|---------------------------------------------------------------|
G|---------------------------------------------------------------|
D|333333336666666644444444---------------------------------------|
A|333333336666666644444444---------------------------------------|
D|333333336666666644444444*slide up and down twice(about 11 fret)|
  ........................
Now I wanna say all those bad things about you (cheese)

e|--------------------------------|
B|--------------------------------|
G|------------------------66666666|
D|33333333666666664444444466666666|
A|33333333666666664444444444444444|
D|333333336666666644444444--------|
  ................................
I'll make up things so everyone hates you

e|----------------------------------|
B|----------------------------------|
G|10--10----8--8--------------------|
D|10--10----8--8----8--8----6--6----|
A|-8---8----6--6----8--8----6--6----|
D|------------------8--8----6--6----|
   This     is      my      re...
   ...venge is      my      re...


e|----------------------------------------------------------------|
B|----------------------------------------------------------------|
G|--------------------------------------------------------66666666|
D|4444444466666666888888884444444444444444666666668888888866666666|
A|4444444466666666888888884444444444444444666666668888888844444444|
D|44444444666666668888888844444444444444446666666688888888--------|
  na na na na na na na na na na na na na na na na na na na na na na


I'd like to mention it took me a while to get the initial riff (tabbed after the solo) 
I'm can say with absolute certaity; this is 100% accurate =]

Eeeeeeeenjoy ^^
Suggest correction
Give kudos to tab author, rate the tab!
1 2 3 4 5
comments
print report bad tab
guest
You may want to rate the tab now too:
select rating
Wanna post a correction for this tab? Suggest correction