Oops, an error
Loading. Please wait.

Shut Me Up Bass Tab

version 2
version 2

Whole song

Interactive

12,820 views 12 this week
2 commentsread comments
1 2 3 4 5
excellent!
x 8
add to favorites
launch autoscroll
font size
0
reset
guitar tuner
Tab Pro tools
  • play this tab
  • loop segment
  • change instrument
  • show fretboard
  • metronome
Autoscroll
slow
fast
+/-
esc
set tempo
stop
Contributor
Difficulty
Song:  "Shut Me Up"
Artist: Mindless Self Indulgence
Album:  You'll Rebel to Anything
Tuning: standard

*= let ring

Intro
G:------------------------------------------------------------|
D:------------------------------------------------------------|
A:------------------------------------------------------------|
E:22222-4-55555-4-55555-4-11111-2-22222-4-55555-4-55555-4-1-2-|

Verse
G:------------------------------------|
D:------------------------------------|
A:------------------------------------|
E:22222-4-55555-4-55555-4-11111-2-----|x3

G:------------------------------------------------------------|
D:------------------------------------------------------------|
A:------------------------------------------------------------|
E:22222-4-55555-4-55555-4-11111-2-22222-4-55555-4-55555-4-1-2-|

Chorus
G:---------------------------------|
D:---------------------------------|
A:---------------------------------| x4
E:22222222-44444444-33333333-1-1-1-|

Pre Verse
G:-----------------------------------------|
D:-----------------------------------------|
A:4*---2*---1-1-1---4*---2*---1------------|
E:-----------------------------------------|

Verse

Chorus

Rest (1:50 - 2:02)

Bridge
G:---------------------------------------------------------------|
D:---------------------------------------------------------------|
A:22222222--------44444444-6666-7-6-22222222--------44444444-----|
D:--------55555555--------------------------55555555--------1-2--|

Chorus

Outro
G:---------------------------------|
D:---------------------------------|
A:---------------------------------|
E:22222222-44444444-33333333-1-1-2-|
comments
print report bad tab
2 comments total.
+3 reply
clarkemenson wrote on November 2 2008, 03:07 pm

your chorus goes like this
Chorus
G:---------------------------------|
D:---------------------------------|
A:---------------------------------| x4
E:22222222-44444444-33333333-1-1-1-|
It should go like this
Chorus
G:---------------------------------|
D:---------------------------------|
A:---------------------------------| x4
E:22222222-55555555-44444444-1-1-1-|
and the bridge yours goes
Bridge
G:---------------------------------------------------------------|
D:---------------------------------------------------------------|
A:22222222--------44444444-6666-7-6-22222222--------44444444-----|
D:--------55555555--------------------------55555555--------1-2--|
it should go
Bridge
G:---------------------------------------------------------------|
D:---------------------------------------------------------------|
A:22222222--------44444444-8888-9-8-22222222--------44444444-----|
D:--------55555555--------------------------55555555--------1-2--|
but great tab =]

0 reply
skinnyhein wrote on April 21 2011, 10:58 am

Came Here to post that, but I see you already did.

I want to post or [tab]
guest
You may want to rate the tab now too:
select rating
Please do not post tabs as comments. Select "correction" instead!