Oops, an error
Loading. Please wait.

Straight To Video Bass Tab

version 1
version 1

Whole song

Interactive

8,750 views 12 this week
no commentswrite comment
1 2 3 4 5
accurate
x 8
add to favorites
launch autoscroll
font size
0
reset
guitar tuner
Tab Pro tools
  • play this tab
  • loop segment
  • change instrument
  • show fretboard
  • metronome
×
Best way to learn
"Straight To Video"
Autoscroll
slow
fast
+/-
esc
set tempo
stop
Contributor
Difficulty
novice
Intro
G|-----------------------|X2
D|-----------------------|
A|------------3~--2------|
E|0~--2-3~--5-------5~--3|

Verse 1
G|------------------|X2
D|------------------|
A|------------------|
E|000--333--555--333|

Chorus
G|----------------|X2
D|----------------|
A|---------2~-----|
E|0~--5-3------2-0|

G|-----------------------|X2
D|-----------------------|
A|------------3~--2------|
E|0~--2-3~--5-------5~--3|

Verse 2
G|------------------|X2
D|------------------|
A|------------------|
E|000--333--555--333|

Chorus
G|----------------|X2
D|----------------|
A|---------2~-----|
E|0~--5-3------2-0|

G|---------------------|X4
D|---------------------|
A|------------3~--2----|
E|0~--2-3~--5-------5~-|

Bridge   
G|------------------------------------|X3 -|
D|--------9--------9-7----7----7---7--|    |
A|-7-7-10---7-7-10-----10---10---9---9|    |
E|------------------------------------|    |
                                           |---X2
G|-----------------------|                 |
D|--------9--------9-7--5|                 |
A|-7-7-10---7-7-10-------|                 |
E|-----------------------|-----------------|

Pre-Chorus
G|------------------|
D|------------------|
A|------------------|
E|000--333--555--333|

Chorus
G|----------------|X2
D|----------------|
A|---------2~-----|
E|0~--5-3------2-0|

G|----------------------------------------|X2
D|----------------------------------------|
A|----------------33333322----------------|
E|0000002233333355--------5555553300000000|

Outro         X2
G|-------------|-------------|
D|-------------|-------------|
A|--------3----|------------3|
E|-0--33-----55|0--33--00-3--|
comments
print report bad tab
I want to post or [tab]
guest
You may want to rate the tab now too:
select rating
Please do not post tabs as comments. Select "correction" instead!