Oops, an error
Loading. Please wait.

Straight To Video Tab

version 3
version 3

Whole song

Interactive

1,792 views 6 this week
no commentswrite comment
1 2 3 4 5
accurate
x 3
add to favorites
launch autoscroll
font size
0
reset
how to read this tab
guitar tuner
Autoscroll
slow
fast
+/-
esc
set tempo
stop
Help us to improve Ultimate-Guitar.com Take our survey!
×
Author
Difficulty
Tuning
novice
D A D G B E
Mindless Self Indulgence
Straight To Video
Tuning: Drop D
Tabbed By: AnthonyFMiller

   0:00 (Synth Intro)
e|---------------------------------------------------------------|
B|---------------------------------------------------------------|
G|---------------------------------------------------------------|
D|---------------------------------------------------------------|
A|---------------------------------------------------------------|
D|-2---4-5---7-10---9-7---0-2----2---4-5---7-10---9-7------------|

   Verse   0:16
e|---------------------------------------------------------------|
B|---------------------------------------------------------------|
G|---------------------------------------------------------------|
D|-2-2-2---5-5-5---7-7-7---5-5-5---2-2-2---5-5-5---7-7-7---2-2-2-|
A|-2-2-2---5-5-5---7-7-7---5-5-5---2-2-2---5-5-5---7-7-7---2-2-2-|
D|-2-2-2---5-5-5---7-7-7---5-5-5---2-2-2---5-5-5---7-7-7---2-2-2-|
   All aboard, hit the road, all the bullshit, can't be ignored

   Chorus   0:31
e|---------------------------------------------------------------|
B|---------------------------------------------------------------|
G|---------------------------------------------------------------|
D|-2--2--2--2/7--7--5---5--5--9--9--9--9--4-4--2-----------------|
A|-2--2--2--2/7--7--5---5--5--9--9--9--9--4-4--2-----------------|
D|-2--2--2--2/7--7--5---5--5--9--9--9--9--4-4--2-----------------|
All the problems make me wanna go like a bad girl straight to video


e|---------------------------------------------------------------|
B|---------------------------------------------------------------|
G|---------------------------------------------------------------|
D|---------------------------------------------------------------|
A|---------------------------------------------------------------|
D|-2---4-5---7-10---9-7---0-2----2---4-5---7-10---9-7------------|

   1:02
e|---------------------------------------------------------------|
B|---------------------------------------------------------------|
G|---------------------------------------------------------------|
D|-2-2-2---5-5-5---7-7-7---5-5-5---2-2-2---5-5-5---7-7-7---2-2-2-|
A|-2-2-2---5-5-5---7-7-7---5-5-5---2-2-2---5-5-5---7-7-7---2-2-2-|
D|-2-2-2---5-5-5---7-7-7---5-5-5---2-2-2---5-5-5---7-7-7---2-2-2-|2X
   Hiney-ho, Here we go, No solution, Strong undertow

   Chorus  1:18
e|---------------------------------------------------------------|
B|---------------------------------------------------------------|
G|---------------------------------------------------------------|
D|-2--2--2--2/7--7--5---5--5--9--9--9--9--4-4--2-----------------|
A|-2--2--2--2/7--7--5---5--5--9--9--9--9--4-4--2-----------------|
D|-2--2--2--2/7--7--5---5--5--9--9--9--9--4-4--2-----------------|2X
   All the problems make me wanna go like a bad girl straight to video

         1:33
e|---------------------------------------------------------------|
B|---------------------------------------------------------------|
G|---------------------------------------------------------------|
D|---------------------------------------------------------------|
A|---------------------------------------------------------------|
D|-2---4-5---7-10---9-7--------2---4-5---7-10---9-7--------------|

   2:04
e|----------------------------------|  |-----------------------|
B|----------------------------------|  |-----------------------|
G|----------------------------------|  |-----------------------|
D|----------------------------------|  |-----------------------|
A|-------2-------2-0---0---0--------|  |---------------2-------|
D|-2-2-5---2-2-5-----5---5---5-7-2--|3X|-2-2-5---2-2-5---5-----|1X

   Outro  3:18
e|-----------------------|  |------------------------------------|
B|-----------------------|  |------------------------------------|
G|-----------------------|  |------------------------------------|
D|-2---5-5---10---12-12--|  |-2---5-5---10---12-12-12---2--------|
A|-2---5-5---10---12-12--|  |-2---5-5---10---12-12-12---2--------|
D|-2---5-5---10---12-12--|3X|-2---5-5---10---12-12-12---2--------|


All aboard
Hit the road
All the bullshit
Can't be ignored
It's hard to place
In my face
No emotion

All the problems make me wanna go
Like a bad girl straight to video
Little darling welcome to the show
You're a failure played in stereo

Hiney-ho
Here we go
No solution
Strong undertow
Quite unfair
Quite a pair
No box office

All the problems make me wanna go
Like a bad girl straight to video
Little darling welcome to the show
You're a failure played in stereo

I'm never noticed
No, never noticed
You're so amazing
So amazing
I'm never noticed
No, never noticed
You're so amazing
So amazing

All aboard
Hit the road
All aboard
Here we go

All the problems make me wanna go
Like a bad girl straight to video
Little darling welcome to the show
You're a failure played in stereo

I'm never noticed
No, never noticed
You're so amazing
So amazing
I've never said it
No, never said
You're suffocating
Suffocating
I'm never noticed
No, never noticed
Your beauty's fading
F-f-fading
Suggest correction
Give kudos to tab author, rate the tab!
1 2 3 4 5
comments
print report bad tab
guest
You may want to rate the tab now too:
select rating
Please do not post tabs as comments. Select "correction" instead!