Oops, an error
Loading. Please wait.

Stupid Mf Bass Tab

version 1
version 1

Whole song

Interactive

8,115 views 3 this week
2 commentsread comments
1 2 3 4 5
x 9
add to favorites
launch autoscroll
font size
0
reset
guitar tuner
Autoscroll
slow
fast
+/-
esc
set tempo
stop
Help us to improve Ultimate-Guitar.com Take our survey!
×
Author
Difficulty
novice
This is my first tab, so dont be too hard on me :P Im fairly sure its right, the best my 
can do. Email me with any changes or suggestions at slappin_and_poppin@hotmail.com

INTRO:

The bass doesnt play here.

VERSE:

G +-----------------------------------------------------------------------+
D |-----------------------------------------------------------------------+
A |---------3333-------------3333-------------3333-------------3333-------+
E +-44444444----1111-44444444----1111-44444444----1111-44444444----1111---+

PRECHORUS 1:

G +--------------------+
D |--------------------+
A |4---------------0---+
E +----6-----0----0----+

PRECHORUS 2:

G +----------------------------------------------------------------+
D |----------------------------------------------------------------+
A |-2-2---2-2-5-5--------2-2---2-2-5-5-------2-2---2-2-5-5---------+
E +-----------------5-5------------------5-5-----------------5-5---+

+-----------------------+
|-----------------------+
|-2-2---2-2-5-5---------+
+-----------------5-5---+

PRECHORUS 3:

G +---------------------------------------------+
D |---------------------------------------------+
A |-0---1---2---5-5-5-5---0---1---2---5-5-5-5---+
E +---------------------------------------------+

CHORUS:

G +-------------------------------------------------------------------+
D |-------------------------------------------------------------------+
A |-------------------------------------------------------------------+
E +-6-6-6-6-6-6-6-6-4-4-4-4-4-4-4-4-3---------------3-3-3-3-3-3-3-3---+

+-----------------------------------------------------+
|-----------------------------------------------------+
|-----------------------------------------------------+
+-6-6-6-6-6-6-6-6-4-4-4-4-4-4-4-4-3-------------------+

VERSE:

G +-----------------------------------------------------------------------+
D |-----------------------------------------------------------------------+
A |---------3333-------------3333-------------3333-------------3333-------+
E +-44444444----1111-44444444----1111-44444444----1111-44444444----1111---+

PRECHORUS 1:

G +--------------------+
D |--------------------+
A |4---------------0---+
E +----6-----0----0----+

PRECHORUS 2:

G +----------------------------------------------------------------+
D |----------------------------------------------------------------+
A |-2-2---2-2-5-5--------2-2---2-2-5-5-------2-2---2-2-5-5---------+
E +-----------------5-5------------------5-5-----------------5-5---+

+-----------------------+
|-----------------------+
|-2-2---2-2-5-5---------+
+-----------------5-5---+

PRECHORUS 3:

G +---------------------------------------------+
D |---------------------------------------------+
A |-0---1---2---5-5-5-5---0---1---2---5-5-5-5---+
E +---------------------------------------------+

CHORUS:

G +-------------------------------------------------------------------+
D |-------------------------------------------------------------------+
A |-------------------------------------------------------------------+
E +-6-6-6-6-6-6-6-6-4-4-4-4-4-4-4-4-3---------------3-3-3-3-3-3-3-3---+

+-----------------------------------------------------+
|-----------------------------------------------------+
|-----------------------------------------------------+
+-6-6-6-6-6-6-6-6-4-4-4-4-4-4-4-4-3-------------------+

BREAKDOWN 1:

Bass rests

BREAKDOWN 2:

G +---------------------------------------------------------------------------+
D |---------------------------------------------------------------------------+
A |-------3-3-3-------5-5-5-------3-3-3-------5-5-5-------3-3-3-------5-5-5---+
E +-3-3-3-------5-5-5-------3-3-3-------5-5-5-------3-3-3-------5-5-5---------+

CHORUS:

G +-------------------------------------------------------------------+
D |-------------------------------------------------------------------+
A |-------------------------------------------------------------------+
E +-6-6-6-6-6-6-6-6-4-4-4-4-4-4-4-4-3---------------3-3-3-3-3-3-3-3---+

+-----------------------------------------------------+
|-----------------------------------------------------+
|-----------------------------------------------------+
+-6-6-6-6-6-6-6-6-4-4-4-4-4-4-4-4-3-------------------+

OUTRO:

G +-------------------------------------------------------------------+
D |-------------------------------------------------------------------+
A |---------3333-------------3333-------------3333-------------3333---+
E +-44444444----1111-44444444----1111-44444444----1111-44444444-------+
Suggest correction
comments
print report bad tab
2 comments total.
+1 reply
mcrgrl123 10 Sep 03, 2007 06:32 PM

awesome.... and one of my favorite songs!!!

0 reply
Xx-ArchAngel-xX 10 Jan 30, 2008 01:15 PM

Great job I love playing this song

guest
You may want to rate the tab now too:
select rating
Wanna post a correction for this tab? Suggest correction