Oops, an error
Loading. Please wait.

Tight Bass Tab

1,758 views 1 this week
no commentswrite comment
1 2 3 4 5
please rate
add to favorites
launch autoscroll
font size
0
reset
guitar tuner
Autoscroll
slow
fast
+/-
esc
set tempo
stop
Help us to improve Ultimate-Guitar.com Take our survey!
×
Author
Tight - Mindless Self Indulgence

Contact: k3ithrm@hotmail.com

b - bend

X4
G|----------------------------------------------|
D|----------------------------------------------|
A|-8--------------------------------------------|
E|----------------------------------------------|
X3
G|----------------------------------------------|
D|----------------------------------------------|
A|-------------4-4------------------------------|
E|-1-1-4-4-2-2----------------------------------|

G|----------------------------------------------|
D|----------------------------------------------|
A|-------------8b-------------------------------|
E|-1-1-4-4-2-2----------------------------------|

G|----------------------------------------------|
D|----------------------------------------------|
A|-----8b---------------------------------------|
E|-111------------------------------------------|

G|----------------------------------------------|
D|----------------------------------------------|
A|----------------------------------------------|
E|-111------------------------------------------|

G|----------------------------------------------|
D|----------------------------------------------|
A|-------------4-4------------------------------|
E|-1-1-4-4-2-2----------------------------------|

G|----------------------------------------------|
D|-------------8b-------------------------------|
A|----------------------------------------------|
E|-1-1-4-4-2-2----------------------------------|
X6
G|----------------------------------------------|
D|----------------------------------------------|
A|-------------4-4------------------------------|
E|-1-1-4-4-2-2----------------------------------|
X2
G|----------------------------------------------|
D|----------------------------------------------|
A|-8--------------------------------------------|
E|----------------------------------------------|

G|----------------------------------------------|
D|----------------------------------------------|
A|-------------4-4------------------------------|
E|-1-1-4-4-2-2----------------------------------|

G|----------------------------------------------|
D|----------------------------------------------|
A|-------------8b-------------------------------|
E|-1-1-4-4-2-2----------------------------------|

G|----------------------------------------------|
D|-------8b-------------------------------------|
A|----------------------------------------------|
E|-111-1----------------------------------------|

G|----------------------------------------------|
D|----------------------------------------------|
A|----------------------------------------------|
E|-111------------------------------------------|

G|----------------------------------------------|
D|----------------------------------------------|
A|-------------4-4------------------------------|
E|-1-1-4-4-2-2----------------------------------|

G|----------------------------------------------|
D|-------------8b-------------------------------|
A|----------------------------------------------|
E|-1-1-4-4-2-2----------------------------------|
X2
G|----------------------------------------------|
D|----------------------------------------------|
A|-------------4-4------------------------------|
E|-1-1-4-4-2-2----------------------------------|
X2
G|----------------------------------------------|
D|-----------------------------10-10-10-10------|
A|-7-7-7-7-10-10-10-10-8-8-8-8------------------|
E|----------------------------------------------|

G|----------------------------------------------|
D|-------8b-------------------------------------|
A|----------------------------------------------|
E|-111-1----------------------------------------|

G|----------------------------------------------|
D|----------------------------------------------|
A|----------------------------------------------|
E|-111------------------------------------------|

G|----------------------------------------------|
D|----------------------------------------------|
A|-------------4-4------------------------------|
E|-1-1-4-4-2-2----------------------------------|

G|----------------------------------------------|
D|-----------------8b---------------------------|
A|-------------4-4------------------------------|
E|-1-1-4-4-2-2----------------------------------|
X2
G|----------------------------------------------|
D|----------------------------------------------|
A|-------------444------------------------------|
E|-1-1-4-4-2-2----------------------------------|
X4
G|----------------------------------------------|
D|----------------------------------------------|
A|-------------4-4------------------------------|
E|-1-1-4-4-2-2----------------------------------|
X4
G|----------------------------------------------|
D|----------------------------------------------|
A|-8--------------------------------------------|
E|----------------------------------------------|

G|---|
D|---|
A|-8-|
E|---|
Suggest correction
Give kudos to tab author, rate the tab!
1 2 3 4 5
comments
print report bad tab
guest
You may want to rate the tab now too:
select rating
Please do not post tabs as comments. Select "correction" instead!