Oops, an error
Loading. Please wait.

What Do They Know Bass Tab

version 2
version 2

Whole song

Interactive

1,592 views 6 this week
2 commentsread comments
1 2 3 4 5
1 last vote to show rating
add to favorites
launch autoscroll
font size
0
reset
guitar tuner
Autoscroll
slow
fast
+/-
esc
set tempo
stop
Help us to improve Ultimate-Guitar.com Take our survey!
×
Author
Difficulty
Verse:
G|-----------------|
D|-----------------| x3
A|---------7-7-----|
E|-4-4-7-7-----2-2-|

pt.2
G|-----------------|
D|-----------------|
A|-----2-2-3-3-----|
E|-0-0---------2-2-|

G|-----------------|
D|-----------------|
A|-----2-2-3-3-----|
E|-0-0---------3-3-|

Chorus:
G|-------------------|
D|------2~-----------| x2
A|-3~-2~--3-2-3----0-|
E|-------------3-2---|

G|-----------------|
D|-----------------|
A|-3~-2~-----------|
E|---------------1-|

Bridge:
G|-----------------|
D|-----------------| x3
A|---------7-7-----|
E|-4-4-7-7-----2-2-|

pt.2
G|-----------------|
D|-----------------|
A|-----2-2-3-3-----|
E|-0-0---------2-2-|

G|-----------------|
D|-----------------|
A|-----2-2-3-3-----|
E|-0-0---------3-3-|

Chorus:
G|-------------------|
D|------2~-----------| x2
A|-3~-2~--3-2-3----0-|
E|-------------3-2---|

G|-----------------|
D|-----------------|
A|-3~-2~-----------|
E|---------------1-|

G|-----------------|
D|-----------------| x5
A|-----2-2-3-3-----|
E|-0-0---------3-2-|

pt.2
G|-----------------|
D|-----------------|
A|-----2-2-3-3-----|
E|-0-0---------2-2-|

G|-----------------|
D|-----------------|
A|-----2-2-3-3-----|
E|-0-0---------3-3-|

Chorus:
G|-------------------|
D|------2~-----------| x2
A|-3~-2~--3-2-3----0-|
E|-------------3-2---|

G|-----------------|
D|-----------------|
A|-3~-2~-----------|
E|---------------1-|

this is the tab i made,some parts are taken from videos i've seen and lyn-z do that,but 
some parts i got them by myself.
if u have any questions ask me in my mail : xxevalicious.mcrxx@hotmail.com
ENJOY!
Suggest correction
Give kudos to tab author, rate the tab!
1 2 3 4 5
comments
print report bad tab
2 comments total.
0 reply
r-a-t-b-a-g 10 Jul 13, 2008 11:12 AM

this is pretty much spot on, the best tab i've seen for this yet

+1 reply
evaliciousxmcr 31 Aug 09, 2008 05:03 PM

Verse:
G|-----------------|
D|-----------------| x3
A|---------7-7-----|
E|-4-4-7-7-----2-2-|

pt.2
G|-----------------|
D|-----------------|
A|-----2-2-3-3-----|
E|-0-0---------2-2-|

G|-----------------|
D|-------------4-4-|
A|-----2-2-3-3-----|
E|-0-0-------------|

Chorus:
G|-------------------|
D|------2~-----------| x2
A|-3~-2~--3-2-3----0-|
E|-------------3-2---|

G|-----------------|
D|-----------------|
A|-3~-2~-----------|
E|---------------1-|

Bridge:
G|-----------------|
D|-----------------| x3
A|---------7-7-----|
E|-4-4-7-7-----2-2-|

pt.2
G|-----------------|
D|-----------------|
A|-----2-2-3-3-----|
E|-0-0---------2-2-|

G|-----------------|
D|-------------4-4-|
A|-----2-2-3-3-----|
E|-0-0-------------|

Chorus:
G|-------------------|
D|------2~-----------| x2
A|-3~-2~--3-2-3----0-|
E|-------------3-2---|

G|-----------------|
D|-----------------|
A|-3~-2~-----------|
E|---------------1-|

G|-----------------|
D|-----------------| x5
A|-----2-2-3-3-----|
E|-0-0---------3-2-|

pt.2
G|-----------------|
D|-----------------|
A|-----2-2-3-3-----|
E|-0-0---------2-2-|

G|-----------------|
D|-------------4-4-|
A|-----2-2-3-3-----|
E|-0-0-------------|

Chorus:
G|-------------------|
D|------2~-----------| x2
A|-3~-2~--3-2-3----0-|
E|-------------3-2---|

G|-----------------|
D|-----------------|
A|-3~-2~-----------|
E|---------------1-|

guest
You may want to rate the tab now too:
select rating
Wanna post a correction for this tab? Suggest correction