Oops, an error
Loading. Please wait.

What Do They Know Bass Tab

version 3
version 3

Whole song

Interactive

504 views 1 this week
no commentswrite comment
1 2 3 4 5
2 more votes to show rating
add to favorites
launch autoscroll
font size
0
reset
guitar tuner
Autoscroll
slow
fast
+/-
esc
set tempo
stop
Help us to improve Ultimate-Guitar.com Take our survey!
×
Author
Difficulty
novice
||--I do not own the right to this song what so ever.--||

Not sure about Verse part 1 but it starts on either 0 on E or 4 on G =/
Variation is at the bottom :]
My first tab so don't be too harsh, i tried. Enjoy.

Song: What Do They Know?
By Mindless Self Indulgence
Album: You'll Rebel To Anything

m = muted/quite


Verse part1:

G|-----------------|
D|-----------------| x3
A|-----2-2-3-3-----|
E|-0-0---------2-2-|
   m m         m m

Verse part2:
G|-----------------|
D|-----------------| x2
A|-----2-2-3-3-----|
E|-0-0---------2-2-|

Chorus:
G|-----------------------|
D|-----------------------| x2
A|-3~-2~-5~-5-3-2-0---0--|
E|------------------3----|

G|---------------------|
D|---------------------|
A|-3~-2~---111111111/9-|
E|---------------------|

[Play verse part 1&2 same amount of times]

[Play chorus x2]

Bridge:

G|-----------------|
D|-----------------|
A|-----2-2-3-3-----|
E|-0-0---------2-2-|
   m m         m m

This bit is fun to play around with as you can add loads of variations, pretty much the 
as the verse and as long as you get the pauses right, it wont sound crap :] here's a 
I've tampered with.

G|----------------------------|
D|----------------------------| x2
A|-------2-2202h3-3-----------|
E|-0-0--0-----------3-3h2-2h0-|

"Written all over my face...!"
G|-------------------------------------|
D|-------------------------------------| x2
A|----------22222222-33333333----------|
E|-00000000-------------------33332222-|

then back to:
Final scream: "Faaaaaaaaaaccee!!!!!!"
G|-----------------|
D|-----------------|
A|-----2-2-3-3-----|
E|-0-0---------3-2-|

G|-----------------|
D|-----------------| x2
A|-----2-2-3-3-----|
E|-0-0---------2-2-|

[Play Chorus again x2]

Outro:

Fade out on:
G|-----------------|
D|-----------------|
A|-----2-2-3-3-----|
E|-0-0---------2-2-|
   m m         m m
___________________________________________
___________________________________________
I couldn't make my mind up whether the verse/intro bits sound like
this:

G|-----------------|
D|-----------------| x3
A|-----2-2-3-3-----|
E|-0-0---------2-2-|
   m m         m m

or this:

G|-4-4----------------|
D|--------------------| x3
A|-----2-2-3-3--------|
E|-------------2-2----|
   m m         m m

I really don't know, just fiddle around and play what you think sounds right. :)

pksam@hotmail.co.uk
Add to tell me if something's wrong or any way i can help you :]
Suggest correction
Give kudos to tab author, rate the tab!
1 2 3 4 5
comments
print report bad tab
guest
You may want to rate the tab now too:
select rating
Wanna post a correction for this tab? Suggest correction