Oops, an error
Loading. Please wait.

Two Reasons Why Tab

246 views 1 this week
no commentswrite comment
1 2 3 4 5
please rate
add to favorites
launch autoscroll
font size
0
reset
how to read this tab
guitar tuner
Tab Pro tools
  • play this tab
  • loop segment
  • change instrument
  • show fretboard
  • metronome
×
Best way to learn
"Two Reasons Why"
Autoscroll
slow
fast
+/-
esc
set tempo
stop
Contributor
All credit goes to Meesh from "Metal Guitar Tabs".
This is his tab, i just changed a few things around.

Tunning Eb Ab Db Gb Bb Eb

Riff A - 0.00
|-------------------------------------------------------------------|
|-------------------------------------------------------------------|
|-------------------------------------------------------------------|
|-2--5--4--5--7-5-4-2--5--0-00000033333-0000033333------------------|x2
|-2--5--4--5--7-5-4-2--5--4-----------------------------------------|
|-0--3--2--3--5-3-2-0--3--2-----------------------------------------|
                            *********** **********
Fill - 0.16
|----------------0-0/0-00-00-00-00-00-0-----------------------------|
|----------------3-3/5-55-55-55-55-55-5-----------------------------|
|-------------------------------------------------------------------|
|-2-----7-5-4-2-----------------------------------------------------|x1
|-2-----7-5-4-2-----------------------------------------------------|
|-0-----5-3-2-0-----------------------------------------------------|


Riff B - 0.25
|-------------------------------------------------------------------|
|-------------------------------------------------------------------|
|-------------------------------------------------------------------|
|-------------------------------------------------------------------|
|-2222-2-2-2-5h6p5h6p5-22-54--2222-2-2-2-5h6p5h6p5-2-3-3-3--2222----|
|-0000-0-0-0-----------00-32--0000-0-0-0-----------0-1-1-1--0000----|
  **** * * *           **     **** * * *           * * * *  ****
|--------------------------------------------|----------------------|
|--------------------------------------------|----------------------|
|-----------------------------------------5-4|----------------------|
|---------------------------------------2----|----------------------|
|-2-2-2-5h6p5h6p5-22-54--3-2-2-2-5-6-22------|-2222-2-2-2-5h6p5h6p5-|
|-0-0-0-----------00-32--1-0-0-0-3-4-00------|-0000-0-0-0-----------|
  * * *           **       *   *     **        **** * * *
|-------------------------------------------------------------------|
|-------------------------------------------------------------------|
|-------------------------------------------------------------------|
|-------------------------------------------------------------------|
|-22-54--2222-2-2-2-5h6p5h6p5-2-3-3-3--2222-2-2-2-5h6p5h6p5-22-54---|
|-00-32--0000-0-0-0-----------0-1-1-1--0000-0-0-0-----------00-32---|
  **     **** * * *           * * * *  **** * * *           **
|-------------------------------------------------------------------|
|-------------------------------------------------------------------|
|-------------------------------------------------------------------|
|-------------------------------------------------------------------|x1
|-3-2-2-2-5-6-------------------------------------------------------|
|-1-0-0-0-3-4-------------------------------------------------------|
    *   *

Riff C - 0.43
|-------------------------------------------------------------------|
|-------------------------------------------------------------------|
|-------------------------------------------------------------------|
|-2-2-2--------2-2-2--------77-7-7-7-0000033333-0000033333--2-2-2---|
|-2-2-2-2-222--2-2-2-2-222--77-7-7-7------------------------2-2-2---|
|-0-0-0-0-000--0-0-0-0-000--55-5-5-5------------------------0-0-0---|
        * ***        * ***           ********** **********
|-------------------------------------------------------------------|
|-------------------------------------------------------------------|
|-------------------------------------------------------------------|
|--------2-2-2--------00-0-0-0-5--7-5-4-----------------------------|x2
|-2-222--2-2-2-2-222--44-4-4-4-5--7-5-4-----------------------------|
|-0-000--0-0-0-0-000--22-2-2-2-3--5-3-2-----------------------------|
  * ***        * ***

Riff D - 1.01
|-------------------------------------------------------------------|
|-------------------------------------------------------------------|
|-------------------------------------5*----------------------------|
|-2------------------7-77777-5----5*5*---2--------------------------|
|-2-2222222222-5\4/5-7-77777-5-55--------2-2222222222222222---------|
|-0-0000000000-3\2/3-5-55555-3-33--------0-0000000000000000-3p2-0---|
    **********                 **          ****************
|-------------------------------------------------------------------|
|-------------------------------------------------------------------|
|---------------------------------------------------------5*--------|
|-0-0-00-0--0-000-00--2------------------7-77777-5----5*5*----------|
|-4-4-44-4--5-555-55--2-2222222222-5\4/5-7-77777-5-55---------------|
|-2-2-22-2--3-333-33--0-0000000000-3\2/3-5-55555-3-33---------------|
              ***       **********                 **
|-------------------------------------------------------------------|
|-------------------------------------------------------------------|
|-------------------------------------------------------------------|
|-2----------------------0-0-00-0-0-000-0---------------------------|x1
|-2-2222-2222-2222-------4-4-44-4-5-555-5---------------------------|
|-0-0000-0000-0000-3p2-0-2-2-22-2-3-333-3---------------------------|
    **** **** ****                  ***

1.18 - repeat Riff C x2

1.36 - repeat Riff D x1

1.59 - repeat Fill   x1

2.01 - repeat First section of riff B x2


Outro - 2.19
|-------------------------------------------------------------------|
|----------------------------------------------------0--------------|
|--------------------------------------5-4-----------0--------------|
|------------------------------------2---------------0--------------|
|-2222-2222---2222-2-2-2-5h6p5h6p5-2-------2222-2222----2222-2-2-2--|
|-0000-0000---0000-0-0-0-----------0-------0000-0000----0000-0-0-0--|
  **** ****   **** * * *           *       **** ****    **** * * *
|-------------------------------------------------------------------|
|-------------------------------------------------------------------|
|---------------5-4-------------------------------------------------|
|-------------2-----3-2-5-6-----------------------------------------|x1
|-5h6p5h6p5-2-------3-2-5-6-----------------------------------------|
|-----------0-------1-0-3-4-----------------------------------------|
            *


Website: www.myspace.com/mindsnarehc
comments
We did not receive enough feedback on this tab! Please rate:
print report bad tab
1 2 3 4 5
I want to post or [tab]
guest
You may want to rate the tab now too:
select rating
Please do not post tabs as comments. Select "correction" instead!