Oops, an error
Loading. Please wait.

5 8 And 10 Chords

1,714 views 1 this week
1 commentread comment
1 2 3 4 5
please rate
add to favorites
launch autoscroll
font size
0
reset
transpose
0
reset
simplify chords
display chords
guitar tuner
Tab Pro tools
  • play this tab
  • loop segment
  • change instrument
  • show fretboard
  • metronome
×
Best way to learn
"5 8 And 10"
Autoscroll
slow
fast
+/-
esc
set tempo
stop
5,8, & 10

Intro/Verse D - G
Chorus D5 - D/C#5 - E5 slide G5 - F#
Bridge E5 - D5 - C#5 - A5 / E5 - D5 - C#5 - B5 / E5 - D5 - C#5 - A5 - G5
Bridge II D5 - B5 - F#5 - G5 - A5
Outro G5 - G/F#5 - D - A

Intro
E -----------------------------------------------------------------|
B -----------------------------------------------------------------|
G -7-----7-----7---6-----6-----6---0-----0-----0---0-----0-----0---|
D ---7-----7---------7-----7---------0-----0---------0-----0-------|
A -----5-----5---5-----5-----5---5-----5-----5---5-----5-----5---5-|
E -----------------------------------------------------------------|

*****************************************

Album: The Power of Failing
comments
We did not receive enough feedback on this tab! Please rate:
print report bad tab
1 2 3 4 5
1 comment total.
+1 reply
Matisa wrote on August 15 2013, 07:47 pm


E --------------------------------------------------------------------|
B --------------------------------------------------------------------|
G -7-----7-----7----6-----6-----6----0-----0-----0----0-----0-----0---|
D ---7-----7-----7----7-----7-----7----7-----7-----7----7-----7-----7-|
A -----5-----5----------5-----5----------5-----5----------5-----5-----|
E --------------------------------------------------------------------|

I want to post or [tab]
guest
You may want to rate the tab now too:
select rating
Please do not post tabs as comments. Select "correction" instead!